Cifra da música: Herbocinética - Raimundos

Esse cifra de Raimundos já foi acessado por 615 pessoas.

Comente

A música Herbocinética fez muito sucesso quando foi gravada por Raimundos. Quer conhecer a letra dela? Veja a letra de Herbocinética e cante.

Veja também o vídeo da música tocada.


 
     Afinar 6ª corda em D (1 tom abaixo).
     p.m. => corda/nota abafada pela mão esquerda

Intro:
e|--------------------------------------------------------|
B|--------------------------------------------------------|
G|--------------------------------------------------------|
D|--------------------------------------------------------|
A|----------------------------------------------------6-5-|
D|-0-0-0-0-0-3-0-6-5-0-0-0-0-0-3/5-3-5--0-0-0-0-0-3-0-6-5-|
 |----------repetir 3 vezes-----------|

main riff
e|--------------------------------------|
B|--------------------------------------|
G|--------------------------------------|
D|--------------------------------------|
A|-0-0-0-0-0-3-0-6-5-0-0-0-0-0-3/5-3-5--|
D|-0-0-0-0-0-3-0-6-5-0-0-0-0-0-3/5-3-5--|

'Falar da vida alheia mas que coisa feia, sempre que tu me aperreia dá 
 vontade de te cancrar.'

Riff2
e|-------------------------------------------------------------------|
B|-------------------------------------------------------------------|
G|-------------------------------------------------------------------|
D|-------------------------------------------------------------------|
A|-0-0-0--3-5-6-5--0-0-0--3-5-6-5--0-0-0--3-5-6-5--3-3-3--6-6-6-6----|
D|-0-0-0--3-5-6-5--0-0-0--3-5-6-5--0-0-0--3-5-6-5--3-3-3--6-6-6-6----|
  | p.m.|         | p.m.|         | p.m.|               |  p.m. |

'Quer se entregar então se entregue, me ilumine mas não me cague,
 em inglês ovo é egg, besteira pra que mudar.'

Main Riff

'E estudar pra ser doutor, e se não for vou ser ladrão, e se não for vou ser
 cantor pra encanta as multidão. Certa vez disse velha Tonha, doido só 
 cresce quem sonha, então acende essa maconha pr'eu ficar doido doidão'

Refrão
e|-----------------------------------------------|
B|-----------------------------------------------|
G|--------------------------------3---7---3---7--|
D|--------------------------------3---7---3---7--|
A|-(3-5-3-5)--3-3--5--3--5--3--5--1---5---1---5--|
D|-(3-5-3-5)--3-3--5--3--5--3--5-----------------|
  * a parte entre parenteses só é tocada na 1a. vez.

'Pr'eu ficar doido doidão, vamo logo essa é a hora e eu tô sofrendo com a 
 demora  e não vim aqui pra brincar. Mais um segundo agente estora, 
 aumentando a pressão lá fora, hoje somos os doido de agora é uma questão
 fumófita, ramo querido da herbocinérica'
 
Intro(só que onde era p/ tocar 3 vezes, toque apenas 1 vez)

Main Riff
'Vou trabalhar pro eleitor e me eleger rei da nação, e se não for vou ser
 ator, trabalhar na televisão. Pois são nos filmes de amor que eu vejo as 
 cenas de ação e lá seus gritos de horror são...'

Refrão

riff3
e|-------------------------------------------------------------------|
B|-------------------------------------------------------------------|
G|----------------------------------------------------5--------------|
D|-0-0-0-0-0-3-0-6-5-0-0-0-0-0-3/5-3-5--0-0-0-0-0-3-0-5--------------|
A|----------------------------------------------------3--------------|
D|-------------------------------------------------------------------|
 
Solo

Intro
_________________
Por Arthur Bueno


Quer fazer uma correção nesta cifra?







    Comentários (0) Postar um Comentário

    Nenhum comentário encontrado. Seja o primeiro!