Cifra da música: Esporrei Na Manivela - Raimundos

Esse cifra de Raimundos já foi acessado por 902 pessoas.

Comente

A música Esporrei Na Manivela fez muito sucesso quando foi gravada por Raimundos. Quer conhecer a letra dela? Veja a letra de Esporrei Na Manivela e cante.

Veja também o vídeo da música tocada.


 
     Afine a 6ª corda(mais grossa) em D (1 tom abaixo).
     ~ => deixe a nota tocando.
     p.m. => (palm muted) abafe a nota/corda.
     / => deslize de uma nota p/ outra (slide).
      =>harmônico[apenas encoste o dedo na corda(por exemplo na casa 7) 
                     e toque]
 
Intro: baixo:D|------------------3-5-|(várias vezes)
             A|-5-5-5-3-3-5-5-5-3----|

Guitarra:
e|----0---------------------------------------------------------------------
B|-3~--0-------3~--5-5-5-5-------8-8--10-10-10-10-10-12-13-12-10-10-12-13---
G|-2~---0--2---2~--4-4-4-4/9-9-9-9-9--9--9--9--9--9--11-12-11-9--9--11-12---
D|-0~----0--0--0~-----------------------------------------------------------
A|--------0--0------------------------------------------------------------0~
D|------------------------------------------------------------------------0~
                  |----toque esta parte 2 vezes----|

baixo: A|-2-2-5-5-0-0-3-3-|(várias vezes)

Guitarra:
e|-----------------|
B|-------------3~--|
G|-------------2~--|
D|-3-0---------0~--|
A|----3-0----------|
D|-------3-0-0-----|

============================================================================
Riff1
e|-------------|
B|-------------|
G|-------------| Repita isto várias vezes, algumas delas abafando as notas
D|-------------|
A|-0-0-5-5-3-3-|
D|-0-0-5-5-3-3-|

Riff 'de passagem'
e|---------------|
B|---------------|
G|------------|
D|-----0~--|
A|---------------|
D|---------------|

Riff2a
e|-------------------------------------|
B|-------------------------------------|
G|-------------------------------------|
D|-------------------------------------|
A|-5-5-0-6-6-5-5-3-3--5-6-6-6-5-6-6-6--|
D|-----0-6-6-5-5-3-3--5-6-6-6-5-6-6-6--|
      |---3 vezes---|

Riff2b
e|-----------------------------|
B|-----------------------------|
G|-----------------------------|
D|-----------------------------|
A|-0-6-6-5-5-3-3--5-5-5-6-6-6--|
D|-0-6-6-5-5-3-3--5-5-5-6-6-6--|
  |---3 vezes---|

Riff2c
e|-------------------------|
B|-------------------------|
G|-------------------------|
D|-------------------------|
A|-0-6-6-5-5-3-3--5-5-6-6--|
D|-0-6-6-5-5-3-3--5-5-6-6--|
  |---2 vezes---||--p.m.-|

Riff2d
e|---------------------|
B|---------------------|
G|---------------------|
D|---------------------|
A|-0-6-6-5-5-3-3--0-0--|
D|-0-6-6-5-5-3-3--0-0--|
  |---3 vezes---||p.m|

Toque em seguida Riff2a,b,c,d:
'Entrei no trem,esporrei na manivela cobrador filha da puta me jogou 
 pela janela. Caí de quatro com o caralho arregalado, e uma véia muito
 escrota me levou pro delegado. O delegado tinha cara de viado e me
 mandou tomar no cú. Tomei no cú mas tomei no cú errado, quando eu menos
 percebi era o cú do delegado.'

Riff3
e|----------------------------------------------------------|
B|----------------------------------------------------------|
G|----------------------------------------------------------|
D|----------------------------------------------------------|
A|-0-4-5-6-5-4--0-4-5-6-5-4--0-4-5-6-5-4-6-5-4-6-5-4-6-5-4--|
D|-0-4-5-6-5-4--0-4-5-6-5-4--0-4-5-6-5-4-6-5-4-6-5-4-6-5-4--|

Toque em seguida Riff2a,d:
'O coletivo é muito bom para sarrar, pois o povo aglomerado sempre
 tende a se esfregar. Com as nega véia é perna aqui perna acolá, e se
 a xereca é mal lavada faz a ricota suar.'

Riff4
e|----------------------|
B|----------------------|
G|----------------------|
D|----------------------|
A|----------------------|
D|-4-5-4-5-4-5-4-5-4-5--| (várias vezes)

Toque em seguida Riff4 e Riff2d:
'Se é nos calombos ou nas freiadas, de é nas curvas ou nas entradas
 são situações propícias para o ato de sarrar. No coletivo o que manda
 é a lei do pau, quem esfrega nos outros, quem não tem só se dá mal.'

Riff5
e|-----------------------------------------------------|
B|-10-12-13-12-10-8-7-8-7--10-12-13-12-10-8-7-8-7-7----|
G|-7--9--10-9--7--5-4-5-4--7--9--10-9--7--5-4-5-4-4-7--|
D|--------------------------------------------------7--| (toque 2X)
A|-----------------------------------------------------|
D|-----------------------------------------------------|

Riff6
e|-----------------------------------------|
B|-----------------------------------------|
G|-----------------------------------------|
D|-----------------------------------------|
A|-12-11-10-9-10-11-10-9--5-4-3-2-3-4-3-2--| toque 4X e termine com:A|-0-|
D|-12-11-10-9-10-11-10-9--5-4-3-2-3-4-3-2--|                        D|-0-|

Enquanto a 1a. guitarra toca Riff6, a 2a. toca:
e|-------------------------------------------------------------------------|
B|----------------------------------------------------------------10-13-15-|
G|7-9-10-9-10-9-12-10-9--7-9-10-10-5-7--7-9-10-9-10-9-12-12-10-12-9--12-14-|
D|7-9-10-9-10-9-12-10-9--7-9-10-10-5-7--7-9-10-9-10-9-12-12-10-12-7--10-12-|
A|5-7-8--7-8--7-10-8--7--5-7-8--8--3-5--5-7-8--7-8--7-10-10-8--10----------|
D|-------------------------------------------------------------------------|

Pequeno 'solo' quando a música 'pára'(as notas são tocadas várias vezes):
e|-10-8-7-5--------|
B|---------8-7-5---|
G|--------------7--|
D|-----------------|
A|-----------------|
D|-----------------|

Riff1 e depois Riff6(apenas 1X,mais devagar e abafando as notas no final)

__________________
Por Arthur Bueno


Quer fazer uma correção nesta cifra?







    Comentários (0) Postar um Comentário

    Nenhum comentário encontrado. Seja o primeiro!