Cifra da música: El Mariachi - Raimundos

Esse cifra de Raimundos já foi acessado por 617 pessoas.

Comente

A música El Mariachi fez muito sucesso quando foi gravada por Raimundos. Quer conhecer a letra dela? Veja a letra de El Mariachi e cante.

Veja também o vídeo da música tocada.


Letra: Digão, Telo / Música: Digão


intro no violão
 A#9                  Am        C9 Dm9
e-1--------------------5---------3--0---|
B-3--------------------5---------5--6---|
G-3--------------------5---------5--7---|
D-3---3-3-3-2-0-3-2-0--7--3-2-0--3--7---|
A-1--------------------7---------3--5---|
E----------------------5----------------|

 F5
Quantos motivos estão escondidos
         A5
Olha que a vida ainda nem começou
  D5                                    C5
Quantas histórias nessa trajetória pequena. Que o tempo levou
 F5
O velho abrigo, não está destruído
 A5
Nem digo onde vou
 D5
Nem toda derrota precede a vitória
 F5                   C5
Quem foi quem perdeu? Quem ganhou?

RIFF:
G|--------3-|
D|-3-2-0--3-|
A|--------1-|
E|----------|

Refrão:
 Bb5                          A5
Quando as gotas de lágrimas caem
 C5                                D5
São pelas mesmas palavras dos lábios que saem
 Bb5                       F5
Sinceridade nem sempre faz bem
  C5
E se a verdade não vai libertar!?

 F5            A5            D5
Ontem eu vi você sorrir pra mim
 C5
Como num sonho
 F5            A5         D5   C5   RIFF
Distorcido e sem final feliz...

REFRÃO

Solo
  F5                A5              D5             C5
e-------------------------------------------------------|
B--------------------5-6--8-6-5-6-5----5-5-5------------|
G----------------5-7-----------------7-------7---5--5-7-|
D----0-2-3--5-7-----------------------------------------|
A--3----------------------------------------------------|
E-------------------------------------------------------|
            F5                       A5             D5
e---------------------------------------------------------|
B---------------------------------------------------------|
G--5---7--------------------------------------------------|
D---------5s7--7-8-10-8-7----7--7-8--10-8-7---------------|
A-------------------------10----------------10--8-7--8-12-|
E---------------------------------------------------------|
             C5
e-----------------------|
B-----------------------|
G-----------------------|
D-----------------------|
A---10--8--7---8--7--5--|
E-----------------------|

REFRÃO

Final: F

Acordes:
  F5  A5  C5  D5  Bb5  F
e----------------------1-|
B----------------------1-|
G----------5---7---3---2-|
D-3---7----5---7---3---3-|
A-3---7----3---5---1---3-|
E-1---5----------------1-|

______________________________________________________________________



Quer fazer uma correção nesta cifra?







    Comentários (0) Postar um Comentário

    Nenhum comentário encontrado. Seja o primeiro!