Cifra da música: Crumis Ódamis - Raimundos

Esse cifra de Raimundos já foi acessado por 483 pessoas.

Comente

A música Crumis Ódamis fez muito sucesso quando foi gravada por Raimundos. Quer conhecer a letra dela? Veja a letra de Crumis Ódamis e cante.

Veja também o vídeo da música tocada.


 
     Afine a 6.a corda em D(1 tom abaixo)
     p.m.=>(palm muted)corda/nota abafada
     / =>deslizar de uma nota para outra(slide)

Riff1(toque 2X na introdução e 4X quanto entrar as letras)
e|----------------------------
B|----------------------------
G|----------5-5-5-------------
D|----------5-5-5-------------  ==>a parte entre parênteses só é tocada 
A|-(2-2-2)--3-3-3-4-4-4-0-0-0-     na introdução.
D|-(2-2-2)--------4-4-4-0-0-0-
   | p.m.|

'A diferença entre um trator e uma beringela
 É a proporção equivalente ao bem que eu sinto por ela
 Isso é verdade
 Na minha casa eu pego a faca e faço um furo
 Pra olhar do outro lado o sol que tá ficando escuro'

Riff2(8X)
e|-----------
B|-----------
G|-----------
D|-----------
A|-3-1-3-4-3-
D|-3-1-3-4-3-

'Vem cá mulher que você está bem arranjada vou chupar seus olhos
 E arrancar seus beijos na dentada e vou comer de colher
 Que é minha marca registrada e vou tão forte
 Que o quarto fica fedendo a carne assada'

(riff1)(4X)
'Fico acordado mesmo morto de sono
 Doido enrolado no ritmo que ela vai me impondo
 Pra cada uma a palavra certa, a hora e o lugar
 Só que onde eu moro não tem nenhuma pra eu olhar' 

(riff2)(8X)
'(Eu sei que tem) eu sei que tem gosto pra tudo
 A moda vai, a moda vem, o tempo passa e eu não mudo
 E até pensando bem filho da puta de um sortudo
 Durmo mal, comendo bem, fazendo grana pelo mundo'

Refrão(1X)
e|---------------------------------------------------------
B|---------------------------------------------------------
G|-8-8-8--5-5-5--8-8-8---------8-8-8--5-5-5--8-8-8---------
D|-8-8-8--5-5-5--8-8-8---------8-8-8--5-5-5--8-8-8---------
A|-6-6-6--3-3-3--6-6-6--4-4-4--6-6-6--3-3-3--6-6-6--2-2-2--
D|----------------------4-4-4-----------------------2-2-2--
                                                   | p.m.|
'Vou chamar minha mãe!
 Que alguma coisa deu errado aqui
 Vou chamar minha mãe!
 Sou local de Serra Pelada'

Riff1b(4X)
e|-------------------------------------
B|-------------------------------------
G|-5-5-5--------------5-5-5------------
D|-5-5-5--------------5-5-5------------
A|-3-3-3-4-4-4-0-0-0--3-3-3--8-8-8/9/8-
D|-------4-4-4-0-0-0---------8-8-8/9/8-

'Terra que tá sempre nua é toda cavucada
 E qualquer um encontra o ouro naquela danada
 Dizem que lá tem cachoeira e até campo de futebol
 E que o dourado da calçada brilha mais que o sol
 É a mulher que chama o homem pra dança
 E só quem não tem limusine são as crianças
 Eu vou voado sou do povo do cerrado
 Eu tou na estrada e se apertar deixe que
 Eu passo de lado de lado'

(refrão)(1X)
'Vou chamar minha mãe!
 Mosquito que não me deixa dormir
 Vou chamar minha mãe!
 Sou local de Serra Pelada'

Riff3(1X)
e|---------
B|---------
G|-5----10-
D|-5----10-
A|-3-2--8--
D|---2-----

Riff4(4X)
e|-----------------------------
B|-----------------------------
G|----------------3------------
D|----------------3------------
A|----------------1------------
D|-0-0-3-0-5-0-3-0--3-0-5-0-3--

Riff5(4X)
e|-------------------------
B|-------------------------
G|-------------------------
D|-------------------------
A|-2-2-2-5-5-5-6-6-6-7-7-7-
D|-2-2-2-5-5-5-6-6-6-7-7-7-

(riff4)(4X)

Riff6(4X)
e|--------------------------
B|--------------------------
G|--------------------------
D|--------------------------
A|----6/5-------------------
D|-0-0----3-0-3-0-3-0-3-0-0-

(riff1)(3X)

 E termine com:
 G|-5-5-5-------
 D|-5-5-5------- 
 A|-3-3-3-4-0-0-
 D|-------4-0-0-
         | p.m.|

_____________________________
Por Arthur Bueno


Quer fazer uma correção nesta cifra?







    Comentários (0) Postar um Comentário

    Nenhum comentário encontrado. Seja o primeiro!