Cifra da música: Cintura Fina - Raimundos

Esse cifra de Raimundos já foi acessado por 685 pessoas.

Comente

A música Cintura Fina fez muito sucesso quando foi gravada por Raimundos. Quer conhecer a letra dela? Veja a letra de Cintura Fina e cante.

Veja também o vídeo da música tocada.


 
Intro:D5   e depois Riff1:
                    e|-----------------------------------------------|
                    B|-----------------------------------------------|
                    G|---------------------------------7-5-5-3-3-2-2-|
                    D|-3-0-3-0-3-0-3-0-5-0-5-0-5-0-5-0---------------|
                    A|-----------------------------------------------|
                    E|-----------------------------------------------|
      
           A5  A5 A#5 A5 G5 F5 G5 A5 
   (riff1) A5  A5 A#5 A5 G5 F5 G5 A5 D5 C5

C5                        E5*        A5
Foi num São Pedro em Itaporanga que aconteceu
C5                G5                       E5
Até hoje eu não esqueço o beijo que ela me deu
F5                                  C5
Era uma garota feia desdentada do cabelo ruim
G5
Só que o que me importa é que ela faz tudo pra mim
C5             E5*                A5    C5
E todo mundo falava: 'esse daí bebeu e se apaixonou
        G5               E5
pela mulher mais feia da região'
F5                         C5
Só que o que você não entendeu é que quem
              G5
pegou ela fui eu e ela me pegou pelo coração


 C5      E5*
Aquela mulher
G5*               F5*
que tem a cintura fina
                   C5  E5*
quero me casar com ela
A5                    E5*    
Pra que tudo na minha vida aconteça de verdade
A5                      E5*    
pra fazer com que eu me sinta com dez anos de idade
A5                 F5*                            C5     E5*    
Pra parar de acompanhar e se importar com gente estúpida


(riff1) A5  A5 A#5 A5 G5 F5 E5 


D5         F#5*        B5
E no outro dia quando amanheceu
D5                              A5                      F#5
Até hoje eu não consigo me esquecer do susto que ela me deu
G5                                   D5
Juro por deus era a mulher mais feia que eu já vi
A5
E tenho que assumir que além de beijar eu dormi com


 D5      F#5*
Aquela mulher
A5*               G5*
que tem a cintura fina
                   D5  F#5*
quero me casar com ela
B5                    F#5*                B5
Pra que tudo na minha vida aconteça de verdade
                            F#5*        B5
Não me importa o planeta, o país ou a cidade
                   G5*                            D5     F#5*
pra parar de acompanhar e se importar com gente estúpida


 D5      F#5*
Aquela mulher
A5*               G5*
que tem a cintura fina
                   D5  F#5*
quero me casar com ela
B5                F#5*                     B5
Pra socar minha piroca dia e noite noite e dia
                 F#5*                         B5
Pra comer ela na cama e na cozinha em cima da pia
                 G5*               D5   F#5*
Pra parar de cheirar aquela xereca suja


 D5      F#5*  A5* G5* D5 F#5* B5 F#5* B5 F#5* B5 G5* D5 F#5* ...
Aquela mulher...
                   

Acordes:
  D5  A5  A#5 G5  F5  C5  E5* E5  G5*  F5*  F#5* B5  F#5    A5*
e|---|---|---|---|---|---|---|---|----|----|----|---|---|----------|
B|---|---|---|---|---|---|---|---|----|----|----|---|---|-------10-|
G|-7-|---|---|---|---|-5-|-9-|---|-12-|-10-|-11-|---|---|-14----9--|
D|-7-|-7-|-8-|-5-|-3-|-5-|-9-|-2-|-12-|-10-|-11-|-9-|-4-|-14-ou-7--|
A|-5-|-7-|-8-|-5-|-3-|-3-|-7-|-2-|-10-|-8--|-9--|-9-|-4-|-12-------|
E|---|-5-|-6-|-3-|-1-|---|---|-0-|----|----|----|-7-|-2-|----------|


Quer fazer uma correção nesta cifra?







    Comentários (0) Postar um Comentário

    Nenhum comentário encontrado. Seja o primeiro!