Cifra da música: Carrão De Dois - Raimundos

Esse cifra de Raimundos já foi acessado por 858 pessoas.

Comente

A música Carrão De Dois fez muito sucesso quando foi gravada por Raimundos. Quer conhecer a letra dela? Veja a letra de Carrão De Dois e cante.

Veja também o vídeo da música tocada.


Por Jorge T.S.  -  20.01.00
E-½: [email protected]

* - nota mais aguda
h - hammer on
p - pull off

(A* G*)
A                             E*
Gatinha dos olhos de amendoim
A                      E*
pediu uma carona, eu dei
A                          E*      A
Homem, essa mulher me deu uma canseira
                           E*
que até hoje eu não descansei
C                                   A  G
E passa a quinta, é mão aqui e ali
C                           E*    A
apressadinha, quer engatar de primeira
                 E*      A         E*
Me levou pro banco de trás, velocidade
D           C                  (A E*)
Logo a pastilha do freio comeu e derreteu na gente
D         C                 A*
Viu a polícia e passou o sinal
                  D           F*
Quando eu percebi que meu motel sobre rodas
  C
Era movido a bafo no vidro
G          G*            F*
Inocente, ela deixava o motor quente

C        G         A     D
E fez voar meu corcel rumei pro norte,
A*                           G*   F*
vi o sertão e fiquei por ali  criando bode,
C           G        A            D
Como é bom amar no céu e ir pra qualquer parte,
A*                        G* F*          (A E) 4x
voando no chão, eu renasci  novo e forte

C                                   A
o combustível da minha vida é aquela
    G     C                       A  G
Mocinha linda que jamais esquecerei
C                    A  G  C        E      A
E desde o dia que ela se foi nunca mais voei

Solo:
  C                     A G*  C                     A G*
|---------------------------------------------------------
|---------------------------------------------------------
|---------------------------------------------------------
|---------------------------------------------------------
|-3-3h5p3-------3-3h5p3-------3-3h5p3-------3-3h5p3-------
|---------5-3-5---------5-3-5---------5-3-5---------5-3-5-

  C     G*      D    C       (A E*) 2x         D C  A*
----------------------------------------------------------
----------------------------------------------------------
-------12~~----12-10-9---10-9-7--7-9-10-9~~---------------
-10~~~----------------------------------------------------
----------------------------------------------------------
----------------------------------------------------------

D F* C    G    G*   F*    C
------------------------------|
------------------------------|
----------------12~~-10~~-----|
--------------------------10~-|
------------------------------|
------------------------------|

C        G         A     D
E fez voar meu corcel rumei pro norte,
A*                           G*   F*
vi o sertão e fiquei por ali  criando bode,
C           G        A            D
Como é bom amar no céu e ir pra qualquer parte,
A*                        G* F*           A>G E*  A>G E  A>G E*  A>G G E
voando no chão, eu renasci  novo e forte




Quer fazer uma correção nesta cifra?







    Comentários (0) Postar um Comentário

    Nenhum comentário encontrado. Seja o primeiro!