Cifra da música: Bestinha - Raimundos

Esse cifra de Raimundos já foi acessado por 676 pessoas.

Comente

A música Bestinha fez muito sucesso quando foi gravada por Raimundos. Quer conhecer a letra dela? Veja a letra de Bestinha e cante.

Veja também o vídeo da música tocada.


     Os acordes que estão entre parenteses são 
     tocados várias vezes (alternando-se).
     / => deslize de uma nota p/ outra(slide)
     ~ => deixe a nota tocando
 
Intro: A5  C5  D5 C5 D5  (2X)

   A5     C5(B5 C5)      D5    C5 D5
 Ela me viu tanto que eu me esforcei
  A5     C5(B5 C5)      D5    C5 D5
 Ela sorriu hoje eu nem me atrasei
 (E5 F5)                            A5 (G5 A5)
 Tão novinha, era a minha, era a melhor
  E5                            (C#5 D5)
 Que bundinha, redondinha e tão só

   A5    C5(B5 C5)      D5    C5 D5
 Ela pediu, pra ir com calma eu fui
   A5     C5(B5 C5)   D5  C5 D5
 Ela sorriu, bem devagar eu pus
    (E5 F5)                        A5 (G5 A5)
 Eu só queria que todo dia fosse igual
 E5                            
 Ralaria, lavava a cozinha 
 (C#5 D5)
 Oh! Minha ruivinha tu transforma em festa um funeral

          _A5*        G5*       C5           D5 C5 E#5 
         | Não tô cansado mas assim me esfola
         | A5       G5        C5  D5 C5 E#5
         | Como na areia do Havaí
 (Refrão)| A5*          G5*             C5        D5 C5 E#5
         | Quem me faz falta é quem não vai na bola
         | A5       G5            C5  D5 C5 E#5
         |_Quem me segura se eu cair

Solo
   A5 (G5 A5)         E5                          (C#5 D5)
e|-------------------------------------------------------------|
B|--------------------13-12~-13-12-10--------------------------|
G|-10/12~--12/14~~--------------------12-11-9------------9-----|
D|--------------------------------------------12-10-10-12-12~~-|
A|-------------------------------------------------------------|
E|-------------------------------------------------------------|

 (E5 F5)                           A5 (G5 A5)  
 Tão novinha era a minha era a melhor
 E5                              D5 (C#5 D5) 
 Que bundinha, redondinha e tão só

           _A5*        G5*             C5      D5 C5 E#5 
          | Pra ser ditado eu não vou pra escola
          | A5       G5        C5  D5 C5 E#5
          | Sem professor eu aprendi
  (Refrão)| A5*          G5*               C5       D5 C5 E#5 
          | Que quem faz falta é quem não vai na bola
          | A5        G5           C5  D5 C5 E#5
          |_Quem me segura se eu cair

 A5(G5 A5)

 E termina com:
   [pausa]               C5
 B|------------------8/9/8~-|
 G|-'barulhos'--7/9~--------| 


Acordes:

  A5  A5*  C5  B5  D5 E5  F5  G5  G5* C#5 E#5
e| - | - | - | - | - | - | - | - | - | - | - |
B| - | 10| - | - | - | - | - | - | 8 | - | - |
G| - | 9 | 5 | 4 | 7 | 9 | 10| - | 7 | 6 | 8 |
D| 7 | 7 | 5 | 4 | 7 | 9 | 10| 5 | 5 | 6 | 8 |
A| 7 | - | 3 | 2 | 5 | 7 | 8 | 5 | - | 4 | 6 |
E| 5 | - | - | - | - | - | - | 3 | - | - | - |

__________________
Por Arthur Bueno


:: Tab p/ baixo ::

Intro: (2 vezes)

G|--------------------------------------------|
D|--------------------5-----------------------|
A|------------------7-------------5-5-5-5---5-|
E|-5-5-5-5-5-5-8--8-----8-8-8-8-8---------8---|

(Parte 1) 2 vezes
Ela me viu, tanto que eu me esforcei
Ela sorriu, hoje eu nem me atrase-ei
              
Parte 1
G|---------------------------------------------------|
D|---------------------------------------------------|
A|-------------------------------------------5---5-5-|
E|-5-5-5-5-5-5-8-8-8-7-8-8-8-7-8-8-8-7-8-8-8---8-----|

(Parte 2)
Tão novinha era a minha era a melhor

Parte 2
G|----------------------------------------------------------|
D|----------------------------------------------------------|
A|--8-8-8-7-8-8-8-7-8-8-8-7-8-8-8-7-8-8-8-7-8-8-8-7-8-8-8-7-|
E|----------------------------------------------------------|

Quando o Rodolfo falar ‘‘melhor’’ faça essa parte

Parte 2B
G|-------------------------------------------|
D|-------------------------------------------|
A|-------------------------------------------|
E|-5-5-3-5-3-5---5-3--5-5-5-3-5-3-5----5-3-5-|

(Parte 2)
Que bundinhaaaaa, rendondinha e tão sóóóóó

Quando o Rodolfo falar ‘‘sóóóóó’’ toque essa parte

Parte 2C
G|--------------------------------|
D|--------------------------------|
A|--------------------------------|
E|-5-5-3-5---5-3--5-5-5-3-5---5-3-|

(Parte 1) 2 vezes
Ela pediu, pra ir com calma eu fui
Ela sorriu, bem devagar eu pus eu

(Parte 2)
Só queria, que todo dia fosse igual

(Parte 2B)

(Parte 2)
Ralaria, lavava a cozinha 

Parte 3
G|----------------------|
D|----------------------|
A|-----------5------5---|
E|-5----8---------8---8-|

(Parte 3)
ô minha ruivinha tu transforma em festa um funeral

Parte 3B
G|--------------------------|
D|--------------------------|
A|-----------5------5-------|
E|-5----8---------8---8-5-8-|
                                             
(Parte 3B)                          
Não tô cansado mas assim me esfola           As parte 3b e 3C   
                                             são apenas um
Parte 3C                                     pouquinho diferentes
G|-----------------------|
D|-----------------------|
A|-----------5---5-------|
E|-5----8------8---8-5-8-|

(Parte 3C)
Como na areia do Havaí

(Parte 3B)
Quem me faz falta é 
quem não vai na bola

(Parte 3C)
Quem me segura se eu cair

(Parte 1) 2 vezes
(Parte 2C)

(Parte 2)
Tão novinha era a minha era a melhor

Quando o Rodolfo falar ‘‘melhor’’ faça a Parte 2B

(Parte 2)
Que bundinhaaaaa, rendondinha e tão sóóóóó

Quando o Rodolfo falar ‘‘sóóóóó’’ toque a Parte 2C

(Parte 3B)
Pra ser ditado eu naum vou pra escola

(Parte 3C)
Sem professor eu aprendi

(Parte 3B)
Que quem faz falta é 
quem naum vai na bola

(Parte 3C)
Quem me segura se eu cair

Final:                                              Renan Costa
G|---------------------------------|                [email protected]
D|---------------------------------|
A|---------------------------------|
E|-5-5-3-5-3-5--3-5--5-5-5-3-5-3-5-|


Quer fazer uma correção nesta cifra?







    Comentários (0) Postar um Comentário

    Nenhum comentário encontrado. Seja o primeiro!