Cifra da música: Atitude Severa - Raimundos

Esse cifra de Raimundos já foi acessado por 595 pessoas.

Comente

A música Atitude Severa fez muito sucesso quando foi gravada por Raimundos. Quer conhecer a letra dela? Veja a letra de Atitude Severa e cante.

Veja também o vídeo da música tocada.


Tab by Pero

Intro (só o Baixo):

|----------------------------------|
|----------------------------------|
|--------3-------5-------6-5-3-5-3-|  (2x)
|--5-3-5---5-3-5---5-3-5-----------|

Quando o baixo tiver repetindo isso a guita faz:

|---------|
|---------|
|--7/8-7--|
|--x/x-x--|
|--5/6-5--|
|---------|

Depois entra a guita junto:

|----------------------------------|
|----------------------------------|
|--------5-------7-------8-7-5-7-5-|
|--7-5-7-5-7-5-7-7-7-5-7-8-7-5-7-5-|
|--7-5-7-3-7-5-7-5-7-5-7-6-5-3-5-3-|  (2x)
|--5-3-5---5-3-5---5-3-5-----------|

Verso 1:

|-------------------------|
|-------------------------|
|------------------5------|
|--7-7--5-7-7--5-7-5-7-5--|  (2x)
|--7-7--5-7-7--5-7-3-7-5--|
|--5-5--3-5-5--3-5---5-3--|

'Aêêê!!...'

|-------------------------------------------|
|-------------------------------------------|
|------------------5-----------------5-4----|
|--7-7--5-7-7--5-7-5-7-5-7-2-3-4-5-6-5-4-7--|
|--7-7--5-7-7--5-7-3-7-5-7-2-3-4-5-6-3-2-7--|
|--5-5--3-5-5--3-5---5-3-5-0-1-2-3-4-----5--|

'Só que...'

|-------------------------|
|-------------------------|
|------------------5------|
|--7-7--5-7-7--5-7-5-7-5--|  (2x)
|--7-7--5-7-7--5-7-3-7-5--|
|--5-5--3-5-5--3-5---5-3--|

'Paiêê!!'

|-------------------------------------------|
|-------------------------------------------|
|------------------5-----------------5-4----|
|--7-7--5-7-7--5-7-5-7-5-7-2-3-4-5-6-5-4-7--|
|--7-7--5-7-7--5-7-3-7-5-7-2-3-4-5-6-3-2-7--|
|--5-5--3-5-5--3-5---5-3-5-0-1-2-3-4-----5--|

'Que o canário...'


Repete Intro só q soh 1x


|-------------------------|
|-------------------------|
|------------------5------|
|--7-7--5-7-7--5-7-5-7-5--|  (2x)
|--7-7--5-7-7--5-7-3-7-5--|
|--5-5--3-5-5--3-5---5-3--|

'Daêêê..'

|-------------------------------------------|
|-------------------------------------------|
|------------------5-----------------5-4----|
|--7-7--5-7-7--5-7-5-7-5-7-2-3-4-5-6-5-4-7--|
|--7-7--5-7-7--5-7-3-7-5-7-2-3-4-5-6-3-2-7--|
|--5-5--3-5-5--3-5---5-3-5-0-1-2-3-4-----5--|

'Se é tudo que me resta...'

|-------------------------|
|-------------------------|
|------------------5------|
|--7-7--5-7-7--5-7-5-7-5--|  (2x)
|--7-7--5-7-7--5-7-3-7-5--|
|--5-5--3-5-5--3-5---5-3--|

'Aêêê!!'

|-------------------------------------------|
|-------------------------------------------|
|------------------5-----------------5-4----|
|--7-7--5-7-7--5-7-5-7-5-7-2-3-4-5-6-5-4-7--|
|--7-7--5-7-7--5-7-3-7-5-7-2-3-4-5-6-3-2-7--|
|--5-5--3-5-5--3-5---5-3-5-0-1-2-3-4-----5--|

'Tu faz pose de princesa...'

Bridge:

|-------------------|
|-------------------|
|-------------------|
|--2----------------|  (3x)
|--2----------------|
|--0--0-3-3-5-6-5-3-|

|-------------------|
|-------------------|
|------------5-4----|
|--2-3-4-5-6-5-4-7--|
|--2-3-4-5-6-3-2-7--|
|--0-1-2-3-4-----5--|

Refrão:

|----------------------------------|
|----------------------------------|
|--------5-------7-------8-7-5-7-5-|
|--7-5-7-5-7-5-7-7-7-5-7-8-7-5-7-5-|
|--7-5-7-3-7-5-7-5-7-5-7-6-5-3-5-3-|  (2x)
|--5-3-5---5-3-5---5-3-5-----------|

'Pra entrar nessa Boleia'

Pós Refrão:

|-------------------------|
|-------------------------|
|------------------5------|
|--7-7--5-7-7--5-7-5-7-5--|  (2x)
|--7-7--5-7-7--5-7-3-7-5--|
|--5-5--3-5-5--3-5---5-3--|

Verso 2:

|-------------------------|
|-------------------------|
|------------------5------|
|--7-7--5-7-7--5-7-5-7-5--|  (2x)
|--7-7--5-7-7--5-7-3-7-5--|
|--5-5--3-5-5--3-5---5-3--|

'Aêêê..'

|-------------------------------------------|
|-------------------------------------------|
|------------------5-----------------5-4----|
|--7-7--5-7-7--5-7-5-7-5-7-2-3-4-5-6-5-4-7--|
|--7-7--5-7-7--5-7-3-7-5-7-2-3-4-5-6-3-2-7--|
|--5-5--3-5-5--3-5---5-3-5-0-1-2-3-4-----5--|

'Botinada na orelha...'

|-------------------------|
|-------------------------|
|------------------5------|
|--7-7--5-7-7--5-7-5-7-5--|  (2x)
|--7-7--5-7-7--5-7-3-7-5--|
|--5-5--3-5-5--3-5---5-3--|

'Fundiii...'

|-------------------------------------------|
|-------------------------------------------|
|------------------5-----------------5-4----|
|--7-7--5-7-7--5-7-5-7-5-7-2-3-4-5-6-5-4-7--|
|--7-7--5-7-7--5-7-3-7-5-7-2-3-4-5-6-3-2-7--|
|--5-5--3-5-5--3-5---5-3-5-0-1-2-3-4-----5--|

'Quando chega na ladeira...'


Repete Intro soh q apenas 1x


Base do Solo:

|-------------------|
|-------------------|
|-------------------|
|--2----------------|  (3x)
|--2----------------|
|--0--0-3-3-5-6-5-3-|

|-------------------|
|-------------------|
|------------5-4----|
|--2-3-4-5-6-5-4-7--|
|--2-3-4-5-6-3-2-7--|
|--0-1-2-3-4-----5--|


Refrão:

|----------------------------------|
|----------------------------------|
|--------5-------7-------8-7-5-7-5-|
|--7-5-7-5-7-5-7-7-7-5-7-8-7-5-7-5-|
|--7-5-7-3-7-5-7-5-7-5-7-6-5-3-5-3-|  (4x)
|--5-3-5---5-3-5---5-3-5-----------|

'Pra entrar nessa Boleia'

Pós Refrão:

|-------------------------|
|-------------------------|
|------------------5------|
|--7-7--5-7-7--5-7-5-7-5--|  (4x)
|--7-7--5-7-7--5-7-3-7-5--|
|--5-5--3-5-5--3-5---5-3--|

Último Toque:

|-----|
|-----|
|-----|
|--7--|
|--7--|
|--5--|

Dúvidas e Correções: [email protected]



Quer fazer uma correção nesta cifra?







    Comentários (0) Postar um Comentário

    Nenhum comentário encontrado. Seja o primeiro!