Cifra da música: Aquela - Raimundos

Esse cifra de Raimundos já foi acessado por 1048 pessoas.

Comente

A música Aquela fez muito sucesso quando foi gravada por Raimundos. Quer conhecer a letra dela? Veja a letra de Aquela e cante.

Veja também o vídeo da música tocada.


Intro:
e|-----------------|
B|-----------------|
G|-----------------|
D|-----------------|=====>(E C#m G#m)2X
A|--2-2-2-4-2---0--| 
E|------------4-2--|

Final da Intro:
e|-----------------|
B|-----------------|
G|-----------------|
D|--4-6h8-4--------|
A|-----------------| 
E|-----------------|

E                    C#m
  Toquei nela sem querer
         G#m     F#
  ela gritou
E                        C#m
  Quem você pensa que eu sou?
        G#m     F#
  ela falou
E                  C#m 
  Bem que eu tentei acalmar,
G#m                      B
  mas não adiantou. Oh, não!
G#m      A                E               B
  Libere seus instintos, girl, vai ser legal.
G#m      A             E             B
  Menininha, eu nunca quis te fazer mal.
G#m           A     G#m      A
  Eu sei que respeito e consideração
F#                       B
  nunca tiveram  nada a ver com tesão.

e|-----------------|
B|-----------------|
G|-----------------|
D|--4-6h8-4--------|
A|-----------------| 
E|-----------------|

E                   C#m
  Mas um dia ela pensou
        G#m      F#
  e aceitou
E                    C#m
  Agora quem quer sou eu
        G#m     F#
  ela falou
E                  C#m
  Bem que eu tentei acalmar
G#m                      B
  mas não adiantou. Oh, não!
G#m      A                E               B
  Libere seus instintos, girl, vai ser legal. 
G#m      A             E             B
  Menininha, eu nunca quis te fazer mal.
G#m           A     G#m      A
  Eu sei que respeito e consideração
F#                       B
  nunca tiveram  nada a ver com tesão.

e|-----------------|
B|-----------------|
G|-----------------|
D|-----------------|=====>(E)3X 
A|--2-2-2-4-2------| 
E|------------4-2--|

Solo:
e|-------------------------------------------------------|
B|-------------------------------------------------------|
G|--9--9-9--9-8--6--6-6-----6-6--------------------------|
D|----------------------6-6-----6-6-6--6--9-6--6-6-9-6-9-|
A|-------------------------------------------------------|
E|-------------------------------------------------------|

e|-------------------------------------------------------|
B|-------------------------------------------------------|
G|--9--9-9--9-8--6--6-6-----6-6--------------------------|
D|----------------------6-6-----6-6-6--6-6/7-7-7-7-9-7-9-|
A|-------------------------------------------------------|
E|-------------------------------------------------------|



E                    C#m
  Toquei nela sem querer
         G#m     F#
  ela gritou
E                        C#m
  Quem você pensa que eu sou?
        G#m     F#
  ela falou
E                  C#m 
  Bem que eu tentei acalmar,
G#m                      B
  mas não adiantou. Oh, não!
G#m      A                E               B
  Libere seus instintos, girl, vai ser legal.
G#m      A             E             B
  Menininha, eu nunca quis te fazer mal.
G#m           A     G#m      A
  Eu sei que respeito e consideração
F#                       B
  nunca tiveram  nada a ver com tesão.





Quer fazer uma correção nesta cifra?







    Comentários (0) Postar um Comentário

    Nenhum comentário encontrado. Seja o primeiro!