Cifra da música: Soul Song - Linkin Park

Esse cifra de Linkin Park já foi acessado por 627 pessoas.

Comente

A música Soul Song fez muito sucesso quando foi gravada por Linkin Park. Quer conhecer a letra dela? Veja a letra de Soul Song e cante.

Veja também o vídeo da música tocada.


Standard Tunning


chord used:

     Am    C9   Em   G	  D    D*   
E |--------3----0----3----2----3----|
B |---1----3----0----3----3----3----|
G |---2----0----1----0----2----2----|
D |---2----2----2----0----0----0----|
A |---0----3----2----2--------------|
E |-------------0----3--------------| 

==========================================
Picking 1, 2 and 3:

    [	  C		G	C9	] [Picking Part 1]

E |----0-------------------3-----3--3---|
B |----1--0--1/0-----------3-----3--3---|
G |---------------0---------------------|
D |------------------2------------------|
A |-0-------------------------3---------|
E |---------------------3---------------|


    [	C		C9		] [Picking Part 2]

E |----0------------------------3--3---|
B |----1--0--1/0----------------3--3---|
G |---------------0--------------------|
D |------------------2-----2-2---------|
A |-0-------------------3--------------|
E |------------------------------------|

    [Am		C9	    	   Am	C9	] [Picking Part 3]

E |------3--3---------3---------3-------3--|
B |-1-1--3--3---------3---------3--1-1--3--|
G |-2-2--0-------------------------2-2--0--|
D |-2-2--2-----0/2-------0/2-------2-2--2--|
A |-0-0--3----------3---------3----0-0--3--|
E |----------------------------------------|


intro : Am, C9

Am, C9
I will be waiting,
Am, C9
with a song in my soul,
Am, C9
a fortunate weakling,
Am, C9
which I have foretold,

Am, C9
He raises his arms tied,
Am, C9
above the abyss,
Am, C9
singing his sweet song,
Am, C9			 Em	G	D
his melody opens up the sun,

Am	  Em	G	D
Freedom raid,
D*	  Em	G	D
God has come,
Am	  Em	G 	D
Rivers of blood,
D*	  [	C	G	C9	] [Picking Part 1] 1x
pushed back in my veins,

[C, C9] [Picking Part 2] 1x


Am, C9
She sleeps with her eyes closed,
Am, C9
to dream of the past,
Am, C9
her mind has gone blind now,
Am, C9				 Em	G	D
while the memory closes up this sun,

Am	  Em	G	D
freedom rain,
D*	  Em	G	D
God has come,
Am	  Em	G	D
Rivers of blood,
D*	  [	C	G	C9	] [Picking Part 1] 3x
pushed back in my veins,

[C, C9] [Picking Part 2] 1x


Am, C9
I will be waiting,
Am, C9
with a song in my soul,
Am, C9
a fortunate weakling,
Am, C9
which I have foretold

[Am, C9, Am, C9] [Picking Part 3]



Quer fazer uma correção nesta cifra?







    Comentários (0) Postar um Comentário

    Nenhum comentário encontrado. Seja o primeiro!