Cifra da música: Breaking the Habit - Linkin Park

Esse cifra de Linkin Park já foi acessado por 846 pessoas.

Comente

A música Breaking the Habit fez muito sucesso quando foi gravada por Linkin Park. Quer conhecer a letra dela? Veja a letra de Breaking the Habit e cante.

Veja também o vídeo da música tocada.


Descer o Ré 1/2 tom tornado Db


Riff
eb-----6-----------6-----------6-----------6--------
Bb--6-----9--8--6-----9--8--6-----9--8--6-----9--8--
Gb--------------------------------------------------
Db--------------------------------------------------
Ab--------------------------------------------------
Db--------------------------------------------------


Verse
eb--------------------------------------------------
Bb--------------------------------------------------
Gb-5-5--8--5-5--5-5--6--5-5--5-5--8--5-5--5-5--6-5-5
Db--------------------------------------------------
Ab--------------------------------------------------
Db--------------------------------------------------


Chorus
eb--------------------------------------------------
Bb--------------------------------------------------
Gb----8-8--8-10-----8-8--8-10----8-8--8-10-8-8--8-10
Db--------------------------------------------------
Ab--8--------------8-------------8---------------8--
Db--------------------------------------------------


Bridge 1 (Guitar arranged for piano)
eb--------------------------------------------------
Bb--------------------------------------------------
Gb--------------------------------------------------
Db--3-----5-----6-----8-----3-----5-----6-----8-----
Ab--3-----5-----6-----8-----3-----5-----6-----8-----
Db--3-----5-----6-----8-----3-----5-----6-----8-----

(continued)
eb--------------------------------------------------
Bb--------------------------------------------------
Gb------6---5----------6---5----------6---5------6-8
Db--3---6---5------4---6---5------4---6---5------6-8
Ab--3---4---3------4---4---3------4---4---3------4-6
Db--3--------------4--------------4-----------------

(continued)
eb--------------------------------------------------
Bb--------------------------------------------------
Gb--6---8---6---8-----------------------------------
Db--6---8---6---8-----------------------------------
Ab--4---6---4---6-----------------------------------
Db--------------------------------------------------


Riff
Verse, Riff
Chorus
Verse, Riff
Chorus, Riff
Bridge, Chorus, Riff
Riff

memories consume
like opening the wound
i'm picking me apart again
you all assume
i'm safe here in my room
[unless i try to start again] 
i don't want to be the one
the battles always choose
cause inside i realize
that i'm the one confused 

i don't know what's worth fighting for
or why i have to scream
i don't know why i instigate
and say what i don't mean
i don't know how i got this way
i know it's not alright
so i'm 
breaking the habit
tonight 

clutching my cure
i tightly lock the door
i try to catch my breath again
i hurt much more
than anytime before
i had no options left again 

i'll paint it on the walls
cause i'm the one at fault
i'll never fight again
and this is how it ends 

i don't know what's worth fighting for
or why i have to scream
but now i have some clarity
to show you what i mean
i don't know how i got this way
i'll never be alright 
so i'm
breaking the habit
breaking the habit 
tonight 



Quer fazer uma correção nesta cifra?







    Comentários (0) Postar um Comentário

    Nenhum comentário encontrado. Seja o primeiro!