Cifra da música: Pushing Me Away - Linkin Park

Esse cifra de Linkin Park já foi acessado por 884 pessoas.

Comente

A música Pushing Me Away fez muito sucesso quando foi gravada por Linkin Park. Quer conhecer a letra dela? Veja a letra de Pushing Me Away e cante.

Veja também o vídeo da música tocada.


Afinação: Eb

Intro:
 Eb |--12-------------|--15--14--12------|-----10---------|-----------14------|
 Bb |-----15--12------|-------------12---|--10-----12-----|---------------15--|
 F# |-------------9---|------------------|-------------9--|---12-14-----------| 
 C# |-----------------|------------------|----------------|-------------------|
 G# |-----------------|------------------|----------------|-------------------|
 EB |-----------------|------------------|----------------|-------------------|
    

Refrão:(Mike)
Eb  ------------------------------------------------
Bb  ------------------------------------------------
F#  --------5-5-5-5---------------------------------
C#  2-2-2---5-5-5-5----5-5-5-5-----7-7--9-9---------
G#  2-2-2---3-3-3-3----5-5-5-5-----7-7--9-9---------
Eb  0-0-0--------------3-3-3-3-----5-5--7-7---------

Refrão:(Brad)
Eb  ------------------------------------------------
Bb  ------------------------------------------------
F#  -11-11-11-12-12-12/19-16-16-16-16-16------------
C#  ------------------------------------------------
G#  -9--9--9--10-10-10/17-14-14-14-14-14------------
Eb  ------------------------------------------------
----------------------------------------------------
Verso 1

I've lied to you 
The same way that I always do 
This is the last smile 
That I'll fake for the sake of being with you 
(Everything falls apart, even the people who never frown eventually break down) 
The sacrifice of hiding in a lie 
(Everything has to end, you'll soon find we're out of time left to watch it all unwind) 
The sacrifice is never knowing 


[Refrão]

Why I never walked away 
Why I played myself this way 
Now I see your testing me pushes me away
Why I never walked away 
Why I played myself this way 
Now I see your testing me pushes me away 


Verso 2:( durante o verso, fica tocando a intro )

I've tried like you 
To do everything you wanted too 
This is the last time
I'll take the blame for the sake of being with you 
(Everything falls apart, even the people who never frown eventually break down) 
The sacrifice of hiding in a lie 
(Everything has to end, you'll soon find we're out of time left to watch it all unwind) 
The sacrifice is never knowing  


[Refrão]
  
Why I never walked away 
Why I played myself this way 
Now I see your testing me pushes me away
Why I never walked away 
Why I played myself this way 
Now I see your testing me pushes me away 
----------------------------------------------------------------------
interludio:
   (Mike)    c5   d5     a5     f5  g5
Eb  ------------------------------------------------
Bb  ------------------------------------------------
F#  -5-5---7-7--------------------------------------
C#  -5-5---7-7----5--5---4-4--5-5-------------------
G#  -3-3---5-5----5--5---4-4--5-5-------------------
Eb  --------------7--7---2-2--3-3-------------------

   (Brad)
Eb  ------------------------------------------------
Bb  ------------------------------------------------
F#  -11-11-11-12-12-12/19-16-16-16-16-16------------
C#  ------------------------------------------------
G#  -9--9--9--10-10-10/17-14-14-14-14-14------------
Eb  ------------------------------------------------

We're all out of time, this is how we find how it all unwinds 
The sacrifice of hiding in a lie 
We're all out of time, this is how we find how it all unwinds 
The sacrifice is never knowing 



Quer fazer uma correção nesta cifra?







    Comentários (0) Postar um Comentário

    Nenhum comentário encontrado. Seja o primeiro!