Cifra da música: A Place For My Head - Linkin Park

Esse cifra de Linkin Park já foi acessado por 1105 pessoas.

Comente

A música A Place For My Head fez muito sucesso quando foi gravada por Linkin Park. Quer conhecer a letra dela? Veja a letra de A Place For My Head e cante.

Veja também o vídeo da música tocada.


Intro: 6x esse solinho e as 4 primeiras abafadas.

e| |------------------------------------------------
B| |------------------------------------------------
G| |--------3-3-3-4-3-1-----------------------------
D| |----1-1-------------4-4-4-2-2-2-4-1-------------
A| |------------------------------------------------
E| |------------------------------------------------

Durante os versos que os caras cantam, tocar o mesmo solinho sem abafar 
nada,
mas com uma pausa entre o 6 e 4 na corda D.

Refrão: Toque 4x essa sequência de  notas

e| |------------------------------------------------------------------------------------------------------
B| |-------------------------------------------------------------------------------------------------------
G| |-------------------------------------------------------------------------------------------------------
D| |---8-8------15------16------15------13------11-11-11------9-9-9-9--------11--------8-8---
A| |---6-6------13------14------13------11-------9---9--9-------7-7-7-7---------9--------6-6----
E| |-------------------------------------------------------------------------------------------------------

Mais ou menos a 1:19 de música,
quando o back vocal começar a dizer ahhhhhhhhhhhhhh e tal, toque as 
seguintes notas 2x, e depois vai pro refrão.

e | |----------------------------------------------------------------------------------------------------------
B| |-----------------------------------------------------------------------------------------------------------
G| |------8---------------------------------------------------------------------------------------------------
D| |------8------------4--------------------------------------------------------------------------------------
A| |------6------------4--------------------------------------------------------------------------------------
E| |--------------------2--------------------------------------------------------------------------------------

Depois tem as mesmas coisas de antes daí se tu ouvir o som tu vai saber.


Correção: Mário SK8eRock ([email protected])
Correção: Rafae ([email protected])
Correção: GABRIEL JUNCO SUZIGAN ([email protected])


Quer fazer uma correção nesta cifra?







    Comentários (0) Postar um Comentário

    Nenhum comentário encontrado. Seja o primeiro!