Cifra da música: Faint - Linkin Park

Esse cifra de Linkin Park já foi acessado por 1015 pessoas.

Comente

A música Faint fez muito sucesso quando foi gravada por Linkin Park. Quer conhecer a letra dela? Veja a letra de Faint e cante.

Veja também o vídeo da música tocada.


Introdução/Refrão
Guitarra 1 (se repete na introdução e no refrão, sendo a guitarra que fica bor baxo da do Mike Shinoda)

e-------------------||--------------------------------------------------------||
B|-------------------||--------------------------------------------------------||
G|---6-6-6-6-6-6-6-6-||13-13-11-11--13-13-11-11--13-13-11-11--11-11-13-13-11-6-||(Repete
D|---x-x-x-x-x-x-x-x-||xx-xx-xx-xx--xx-xx-xx-xx--xx-xx-xx-xx--xx-xx-xx-xx-xx-x-||  1x)
A|---4-4-4-4-4-4-4-4-||11-11-09-09--11-11-09-09--11-11-09-09--09-09-11-11-09-4-||
E|-------------------||--------------------------------------------------------||

Guitarra 2 (Mike Shinoda, introdução e refrão)

e------------------------------------------------------- 
B|-------------------------------------------------------
G|-----------------------------------6-6-8-8-8-8-8-8-----
D|---6-6-6-6-6-6-6-6-9-9-9-9-9-9-9-9-4-4-6-6-6-6-6-6---6-   (Repete 1x)
A|---4-4-4-4-4-4-4-4-7-7-7-7-7-7-7-7-4-4-6-6-6-6-6-6-7-4-
E|---4-4-4-4-4-4-4-4-7-7-7-7-7-7-7-7-----------------0-4-

Estrofes
Quando começa a cantar as estrofes, logo após cantar 'I am', e ao terminar essa parte, já entra novamente a parte da introdução/refrão. Detalhe que essa é a guitarra 1.

e---------------------------------------------
B|---------------------------------------------
G|-----------------------------------------9-6- 
D|-6--------------6--------------6---------7-4-  
A|-4--------------4--------------4---------7-4-
E|-4--------------4--------------4-------------

Riff
Após feito tudo isso duas vezes, por volta dos 2 minutos e 26 segundos da música, entra a parte:

e-------------------------------
B|-------------------------------
G|-------------------------------
D|---6-----------------6---------      (Repete 2x)
A|-4-6-7-6-7-6---4-4-4-6-7-6-7-6-
E|-4---7-6-7-6---4-4-4---7-6-7-6-

Ordem a ser tocada:
introdução/refrão
estrofe
introdução/refrão
estrofe
introdução/refrão
riff
introdução/refrão
introdução/refrão



I am
Little bit of loneliness
A little bit of disregard
A handful of complaints
But I can't help the fact
That everyone can see these scars
I am
What I want you to want
What I want you to feel
But it's like
No matter what I do
I can't convince you
To just believe this is real
So I let go
Watching you
Turn your back like you always do
Face away and pretend that i'm not
But i'll be here
'Cause you're all I got

I am
A little bit insecure
A little unconfident
'Cause you don't understand
I do what I can
But sometimes I don't make sense
I am
What you never want to say
But i've never had a doubt
It's like no matter what I do
I can't convince you
For once just to hear me out
So I let go
Watching you
Turn your back like you always do
Face away and pretend that i'm not
But i'll be here
'Cause you're all I got

I can't feel
The way I did before
Don't turn your back on me
I won't be ignored
Time won't heal
This damage anymore
Don't turn your back on me
I won't be ignored

No
Hear me out now
You're gonna listen to me
Like it or not
Right now



Quer fazer uma correção nesta cifra?







    Comentários (0) Postar um Comentário

    Nenhum comentário encontrado. Seja o primeiro!