Cifra da música: My December - Linkin Park

Esse cifra de Linkin Park já foi acessado por 623 pessoas.

Comente

A música My December fez muito sucesso quando foi gravada por Linkin Park. Quer conhecer a letra dela? Veja a letra de My December e cante.

Veja também o vídeo da música tocada.


Intro/Verse for Piano

D------------------------|----------------------------
A------------------------|----------------------------
F----0-----0-----0-----0-|---0-----0-----0-----0------
C-2-----4-----2-----4----|0-----------0---------------
G------------------------|------9-----------9---------
D------------------------|----------------------------

The guitar line (all harmonics) -enters at :13

D-----------|---------------------------
A-----------|---------------------------
F-12--12--7-|-12--12--------------------
C-----------|---------7-----------------
G-----------|---------------------------
D-----------|---------------------------

Chester's verse vocals ('this is my december...') :20

D-------------|---------------|-------------|---------
A-------------|---------------|-------------|---------
F--2-4-2---2/4|--2-4-2---2----|--2-4-2---2/4|--2-4-2--
C-5-------5---|5-------5---5/2|5-------5----|5-------5
G-------------|---------------|-------------|---------
D-------------|---------------|-------------|---------




Prechorus ('And I...') :57

D-----------------------------------
A-----------------------------------
F-----------------------------------
C-5--7/9--5---7/9--7----------------
G-----------------------------------
D-----------------------------------

Chorus ('Give it all away') 1:17
and bridge ending ('this is all so clear..') 2:51

D-------------------------------|-----------------
A------------------------5-3----|-------8-8/7-(5)-
F-7-7-7-4-2---7-7-7-4-2------2--|---2-4-----------
C-------------------------------|-5---------------
G-------------------------------|-----------------
D-------------------------------|-----------------

Strings at end- 3:51
D----------------------------------------------
A----------------------------------------------
F-----2--4--2-----2--4--2--etc.----------------
C--5-----------5-------------------------------
G----------------------------------------------
D----------------------------------------------

Song order:
Intro- 
Verse- :17
Verse- :38
Prechorus- :57
Chorus- 1:16
Verse- 1:36
Prechorus- 1:55
Chorus- 2:13
Bridge (verse lyrics)- 2:33
Chorus- 2:52
Chorus- 3:12
Outro- 3:31
Strings enter- 3:51
Fade- 4:02
End- 4:17




Quer fazer uma correção nesta cifra?







    Comentários (0) Postar um Comentário

    Nenhum comentário encontrado. Seja o primeiro!