Cifra da música: Don't Stay - Linkin Park

Esse cifra de Linkin Park já foi acessado por 510 pessoas.

Comente

A música Don't Stay fez muito sucesso quando foi gravada por Linkin Park. Quer conhecer a letra dela? Veja a letra de Don't Stay e cante.

Veja também o vídeo da música tocada.


Riff
db-----------------------------------------------------------
Ab-----------------------------------------------------------
E------------------------------------------------------------
B---0-0-0--7--3---5-5-5--8--7----0-0-0--7--3---5-5-5--8--7---
Gb--0-0-0--7--3---5-5-5--8--7----0-0-0--7--3---5-5-5--8--7---
B---0-0-0--7--3---5-5-5--8--7----0-0-0--7--3---5-5-5--8--7---


Fill 1 (gradually louder)
db-----------------------------------------------------------
Ab-----------------------------------------------------------
E------------------------------------------------------------
B------------------------------------------------------------
Gb---5-5-5-5-5-5-5-5-5-5-5-5-5-5-5-5-5-----------------------
B------------------------------------------------------------


Verse                         end on
db-----------------------------|-----------------------------
Ab-----------------------------|-----------------------------
E------------------------------|-----------------------------
B---0-0-0--7--3---5-5-5--8--7--|--0-0-0--7--3--1-1--1--x-x-x-
Gb--0-0-0--7--3---5-5-5--8--7--|--0-0-0--7--3--1-1--1--x-x-x-
B---0-0-0--7--3---5-5-5--8--7--|--0-0-0--7--3--1-1--1--x-x-x-


Chorus
db-----------------------------------------------------------
Ab-----------------------------------------------------------
E------------------------------------------------------------
B---0--0--0--7--8--10--5--5--5--7--3--1----------------------
Gb--0--0--0--7--8--10--5--5--5--7--3--1----------------------
B---0--0--0--7--8--10--5--5--5--7--3--1----------------------


Fill 2
db-----------------------------------------------------------
Ab-----------------------------------------------------------
E------------------------------------------------------------
B---1-1--1-x-x-x---1-1--1-x-x-x------------------------------
Gb--1-1--1-x-x-x---1-1--1-x-x-x------------------------------
B---1-1--1-x-x-x---1-1--1-x-x-x------------------------------


Bridge                                end on
db-------------------------------------|---------------------
Ab-------------------------------------|---------------------
E------------------17-17-17-17--20-20--|---------------------
B---0-0-0--1--1-0---x--x--x--x---x--x--|--0-0-0--1--1-0--1-1-
Gb--0-0-0--1--1-0--15-15-15-15--18-18--|--0-0-0--1--1-0--1-1-
B---0-0-0--1--1-0----------------------|--0-0-0--1--1-0--1-1-

(continued)
db-----------------------------------------------------------
Ab-----------------------------------------------------------
E------------------------------------------------------------
B---1--x-x-x---1-1--1--x-x-x---1-1--1--x-x-x--0h1-1-1-1-1-1--
Gb--1--x-x-x---1-1--1--x-x-x---1-1--1--x-x-x--0h1-1-1-1-1-1--
B---1--x-x-x---1-1--1--x-x-x---1-1--1--x-x-x--0h1-1-1-1-1-1--



Riff, Fill
Riff
Verse
Chorus
Riff
Verse (end on fill 2)
Chorus
Riff, Fill
Bridge
Chorus
Verse

Letra:

SOMETIMES I
NEED TO REMEMBER JUST TO BREATHE
SOMETIMES I
NEED YOU TO STAY AWAY FROM ME
SOMETIMES I'M
IN DISBELIEF I DIDN'T KNOW
SOMEHOW I
NEED YOU TO GO 
SOMETIMES I
FEEL LIKE I TRUSTED YOU TOO WELL
SOMETIMES I
JUST FEEL LIKE SCREAMING AT MYSELF
SOMETIMES I'M
IN DISBELIEF I DIDN'T KNOW
SOMEHOW I
NEED TO BE ALONE 
DON'T STAY
FORGET OUR MEMORIES
FORGET OUR POSSIBILITIES
WHAT YOU WERE CHANGING ME INTO
[JUST GIVE ME MYSELF BACK AND]
DON'T STAY
FORGET OUR MEMORIES
FORGET OUR POSSIBILITIES
TAKE ALL YOUR FAITHLESSNESS WITH YOU
[JUST GIVE ME MYSELF BACK AND]
DON'T STAY
I DON'T NEED YOU ANYMORE
I DON'T WANT TO BE IGNORED
I DON'T NEED ONE MORE DAY
OF YOU WASTING ME AWAY 
WITH NO APOLOGIES 




Contribuição da Letra: AGMAR OCARA...LINKIN PARK NA VEIA...([email protected])


Quer fazer uma correção nesta cifra?







    Comentários (0) Postar um Comentário

    Nenhum comentário encontrado. Seja o primeiro!