Cifra da música: Wings Of Despair - Kamelot

Esse cifra de Kamelot já foi acessado por 525 pessoas.

Comente

A música Wings Of Despair fez muito sucesso quando foi gravada por Kamelot. Quer conhecer a letra dela? Veja a letra de Wings Of Despair e cante.

Veja também o vídeo da música tocada.


 first guitar
|-------------------------------------------------------------------------------------------|
|-------------------------------------------------------------------------------------------|
|-------------------------------------------------------------------------------------------|
|-0-0-7-0-0-8-0-0-7-0-3-5-7-0-0-7-0-0-8-0-0-7-0-3-5-7-0-0-7-0-0-8-0-0-7-12--10--9--7--9-10--|
|-------------------------------------------------------------------------------------------|
|-------------------------------------------------------------------------------------------|

 second guitar
|----------------------|-----------------|-------------------------------|
|----------------------|-----------------|-------------------------------|
|----------------------|-----------------|-------------------------------|
|--7-------7--------7--|----7---8---9----|-7---------------------7-------|
|--5-------5--------5--|----5---6---7----|-5-5-5-5-5-5-5-5-5-5-0-5-5-5-5-|
|----------------------|-----------------|-------------------------------|

 start to sing
 first guitar 
|----------------------------------|
|----------------------------------|
|----------------------------------|
|--7------------------7-7----------|
|--5------------------5-5----------|
|----------------------------------|

 second guitar
|-------------------------------------------||-------------------------------------------|
|-------------------------------------------||-------------------------------------------|
|-------------------------------------------||-------------------------------------------|
|-7---------------5-4--7-----------------2--||-7---------------5-4--7-----------------5-7|
|-5-5-5-5-5-5-5-5-3-2--5-5-5-5-5-5-5-5-5-0-0||-5-5-5-5-5-5-5-5-3-2--5-5-5-5-5-5-5-5-5-3-5|
|-------------------------------------------||-------------------------------------------|


 pre- chorus
|----------------------------------------------------------------------|
|----------------------------------------------------------------------|
|----------------------------------------------------------------------|
|----------------------------------------------------------------------|
|----------------------------------------------------------------------|
|-5-5-5-5-5-5-5-5-6---5-5-5-5-5-5-5-3--5-5-5-5-5-5-6---5-5-5-5-5--6--8-|


 other guitar
|------------------------12/11/10/9/8/7/6/5----|
|------------------------12/11/10/9/8/7/6/5----|
|------------------------12/11/10/9/8/7/6/5----|
|----------------------------------------------|
|----------------------------------------------|
|-2/3/4/5/6/7/8/9/10---------------------------|


 chorus
|------------------------------------------------|
|------------------------------------------------|
|------------------------------------------------|
|---7-----3-----5--------7---3-----5---2--3--5---|
|---5-----1-----3--8--7--5---1-----3---0--1--3---|
|------------------------------------------------|

riff 1
pre- chorus
chorus

 before the solo
|----------------------------------|
|----------------------------------|
|----------------------------------|
|--7-----5------3----2-2-2---------|
|--5-----3------1----0-0-0--3-3--4-|
|----------------------------------|


 second guitar in the solo
|------------------------------------------------------------------|
|------------------------------------------------------------------|
|------------------------------------------------------------------|
|--7---------5---------3-----------2-----------------------3-2-----|
|--5-5-5-5-5-3-3-3-3-3-1-1-1-1-1-1-0-0-0-0-0-0-------2-3-5-----5-3-|
|----------------------------------------------2-3-5---------------|


riff 1
pre-chorus
chorus

|-------------------------------|
|-------------------------------|
|-------------------------------|
|--7---7---7---7---7---7---7----|
|--5---5---5---5---5---5---5----|
|-------------------------------|



Quer fazer uma correção nesta cifra?







    Comentários (0) Postar um Comentário

    Nenhum comentário encontrado. Seja o primeiro!