Cifra da música: The Spell - Kamelot

Esse cifra de Kamelot já foi acessado por 570 pessoas.

Comente

A música The Spell fez muito sucesso quando foi gravada por Kamelot. Quer conhecer a letra dela? Veja a letra de The Spell e cante.

Veja também o vídeo da música tocada.



|-------------------------------|
|-------------------------------|
|-2/9--------2/9-------2/9--9---|
|-------------------------------|
|-------------------------------|
|-------------------------------|



|---------------------------------|
|---------------------------------|
|---------------------------------|
|--9----11----12------11---7---9--|
|--7----9-----10------9----5---7--|
|---------------------------------|



|-------------------------------|
|-------------------------------|
|-------------------------------|
|--9----11----12-------11----7--|
|--7----9-----10-------9-----5--|
|-------------------------------|



|-------------------------------|
|-------------------------------|
|-------------------------------|
|-------7-------9---7-----------|
|---9------10----------10---9---|
|-------------------------------|


  ( riff 1 )
|-------------------------------|
|-------------------------------|
|-------------------------------|
|-------------------------------|
|----7-------3------------------|
|--------------------5--------7-|



 start to sing ( riff 2)
|-------------|---------------|
|-------------|---------------|
|-------------|---------------|
|-------------|---------------|
|--2----------|------------2--|
|--0----------|------------0--|


 pre - chorus
|-------------------------------|
|-------------------------------|
|-------------------------------|
|---5--5----2--2----------------|
|---3--3----0--0-------4---2----|
|----------------------2---0----|


 chorus
|---------------------------------|
|---------------------------------|
|---------------------------------|
|--9----11----12------11---7---9--|
|--7----9-----10------9----5---7--|
|---------------------------------|



|-------------------------------|
|-------------------------------|
|-------------------------------|
|--9----11----12-------11----7--|
|--7----9-----10-------9-----5--|
|-------------------------------|



|-------------------------------|
|-------------------------------|
|-------------------------------|
|-------7-------9---7-----------|
|---9------10----------10---9---|
|-------------------------------|

 riff 1
 riff 2 
 pre - chorus
 chorus

 before the solo
|--------------------|------------------|
|--------------------|------------------|
|--------------------|------------------|
|--------------------|------------------|
|--2----7/9--7/9---2-|--2-------------2-|
|--0---------------0-|--0--3/5--3/5---0-|


 second guitar in the solo
|---------------------------|------------------------|
|---------------------------|------------------------|
|---------------------------|------------------------|
|--9---11---12---11---7---9-|---9---11--12----11---7-|
|--7---9----10---9----5---7-|---7---9---10----9----5-|
|---------------------------|------------------------|



Quer fazer uma correção nesta cifra?







    Comentários (0) Postar um Comentário

    Nenhum comentário encontrado. Seja o primeiro!