Cifra da música: Karma - Kamelot

Esse cifra de Kamelot já foi acessado por 686 pessoas.

Comente

A música Karma fez muito sucesso quando foi gravada por Kamelot. Quer conhecer a letra dela? Veja a letra de Karma e cante.

Veja também o vídeo da música tocada.



|--------------------------------|
|--------------------------------|
|--------------------------------|
|--------------------------------|
|-2---2---2---2---2--------------|
|-0---0---0---0---0--------------|



|------------|------------|------------|------------|
|------------|------------|------------|------------|
|------------|------------|------------|------------|
|--5---7-----|--5--7--9---|--5--7--9---|--5--7------|
|--3---5---2-|--3--5--7---|--3--5--7---|--3--5--9---|
|----------0-|------------|------------|--------7---|



|---------------------|
|---------------------|
|---------------------|
|-9---7---2---4-5---7-|
|-7---5---0---2-3---5-|
|---------------------|


 start to sing ( riff 1 )
|---------------------------------------------------------|
|---------------------------------------------------------|
|---------------------------------------------------------|
|--4--4--4--5--5--4--4--4--2--2--4--4--4--5--5--4--4--4---|
|--2--2--2--3--3--2--2--2--0--0--2--2--2--3--3--2--2--2---|
|---------------------------------------------------------|


 pre- chorus
|--------------------------------|
|--------------------------------|
|--------------------------------|
|------9------7--------5---3---2-|
|----9------7--------5-----------|
|--7------5--------3-------------|


 CHORUS
|----------------------|-----------------|
|----------------------|-----------------|
|----------------------|-----------------|
|-5-------7------9-----|-----------------|
|-33333---55555--77777-|--10-9-10-12-10--|
|-----------------0000-|-----------------|


 riff 1
 pre - chorus
 chorus


 verse before the solo
|------------------------------|
|------------------------------|
|------------------------------|
|------------------------------|
|------------------------------|
|------------------7-7-7-7-7---|



 second guitar in the solo
|---------------------------------|
|---------------------------------|
|---------------------------------|
|--5---7---9---7--------5----7----|
|--3---5---7---5---4----3----5--7-|
|------------------2------------5-|


 pause 
|-------------------------------------------|
|-------------------------------------------|
|-------------------------------------------|
|--5----7---------5----7----9-9-9---7-7-7---|
|--3----5----2----3----5----7-7-7---5-5-5---|
|------------0------------------------------|


 chorus 
|----------------------|-----------------|
|----------------------|-----------------|
|----------------------|-----------------|
|-5-------7------9-----|-----------------|
|-33333---55555--77777-|--10-9-10-12-10--|
|-----------------0000-|-----------------|



|--------------------------------|
|--------------------------------|
|--------------------------------|
|--------------------------------|
|--2-----2------2----------------|
|--0-----0------0----------------|


Quer fazer uma correção nesta cifra?







    Comentários (0) Postar um Comentário

    Nenhum comentário encontrado. Seja o primeiro!