Cifra da música: Across The Highlands Elizabeth - Kamelot

Esse cifra de Kamelot já foi acessado por 467 pessoas.

Comente

A música Across The Highlands Elizabeth fez muito sucesso quando foi gravada por Kamelot. Quer conhecer as demais músicas? Conheça as letras das músicas gravadas por Kamelot e aproveite.

Veja também o vídeo da música tocada.


   
|--------------------------------|-------------|
|--------------------------------|-------------|
|--------------------------------|-------------|
|---6-------4--6--------9--------|-6-6-6-------|
|---4-------2--4--------7-----9--|-4-4-4-------|
|-----------------------0-----7--|-------------|


 start to sing ( riff 1 )
|---------------------------------------------|
|---------------------------------------------|
|---------------------------------------------|
|--6-----6-------------4----------6---4---2---|
|--4-----4---4-6-7-7-----7-6-4----4---2---0---|
|---------------------------------------------|


 pre - chorus 
|-----------------------------------------|-------------------------------------|
|-----------------------------------------|-------------------------------------|
|-----------------------------------------|-------------------------------------|
|-----------------------------------------|-------------------------------------|
|-6--------4--------6---------7-----------|-6--------4--------------------------|
|-44444444-22222222-444444444-55555555555-|-44444444-22222222--4-5--2-4--0-2--0-|


 chorus
|--------------------------------------------|
|--------------------------------------------|
|--------------------------------------------|
|---6-----2--4----------------------6----4---|
|---4-----0--2-----5--7------4------4----2---|
|------------------3--5------2---------------|


riff 1
pre - chorus 
chorus


 secong guitar in the solo
|---------------------|---------------------|-----------------|-----------------|
|---------------------|---------------------|-----------------|-----------------|
|---------------------|---------------------|-----------------|-----------------|
|--6---------4--------|--6---------4--------|--6---9----------|---6----4----2---|
|--4----4----2----6---|--4----4----2----6---|--4---7---9---6--|---4----2----0---|
|-------2---------4---|-------2---------4---|----------7---4--|-----------------|



|--------------------------------|-------------|
|--------------------------------|-------------|
|--------------------------------|-------------|
|---6-------4--6--------9--------|-6-6-6-------|
|---4-------2--4--------7-----9--|-4-4-4-------|
|-----------------------0-----7--|-------------|

pre - chorus
chorus

|--------------------------------------------|-----------------------------------|
|--------------------------------------------|-----------------------------------|
|--------------------------------------------|-----------------------------------|
|---6-----2--4----------------------6----4---|--6---4-----6---4----------4----6--|
|---4-----0--2-----5--7------4------4----2---|--4---2-----4---2-----4----2----4--|
|------------------3--5------2---------------|----------------------2------------|


Quer fazer uma correção nesta cifra?







    Comentários (0) Postar um Comentário

    Nenhum comentário encontrado. Seja o primeiro!