Cifra da música: The Light I Shine On You - Kamelot

Esse cifra de Kamelot já foi acessado por 496 pessoas.

Comente

A música The Light I Shine On You fez muito sucesso quando foi gravada por Kamelot. Quer conhecer a letra dela? Veja a letra de The Light I Shine On You e cante.

Veja também o vídeo da música tocada.


  x 2
|---------------------------------------|
|---------------------------------------|
|---------------------------------------|
|---------------------------------------|
|-2--------9----------5----------5--7/9-|
|-0-0-0-0--7-0-0-0-0--3-0-0-0-0--3--5/7-|



|-----------------------------|
|-----------------------------|
|-----------------------------|
|--5--------7-----------------|
|--3--------5--------2--------|
|--------------------0--------|


 riff 1 (start to sing)
|--------------------------------|
|--------------------------------|
|--------------------------------|
|--------------------------------|
|--2--2--2--2--2--2--2--2--2--2--|
|--0--0--0--0--0--0--0--0--0--0--|


 chorus
|------------------------------------------------------------------|
|------------------------------------------------------------------|
|------------------------------------------------------------------|
|------4---5---7-------------9---5---------------5-----------------|
|--7---2---3---5---7--9--10--7---3---7---5---2---3---7---5--4--2---|
|--5---------------------------------5---3---0-------5---3--2--0---|


riff 1
chorus
verse without guitar

 second guitar in the solo
|--------------------------------|
|--------------------------------|
|--------------------------------|
|--------------------------------|
|--2----------2--------2---------|
|--0-0-0-0-0--0-0-0-0--0-0-0-0-0-|

chorus                                                           
|-----------------------------------------------------------|
|-----------------------------------------------------------|
|-----------------------------------------------------------|
|-----4---5---7-------------9---5---------------5-----------|
|-7---2---3---5---7--9--10--7---3---7---5---2---3---7---5--4|
|-5---------------------------------5---3---0-------5---3--2|

|-----------------------------------|
|-----------------------------------|
|-----------------------------------|
|--9---5---------------5------------|
|--7---3---7---5---2---3--7--5--4--2|
|----------5---3---0------5--3--2--0|


Quer fazer uma correção nesta cifra?







    Comentários (0) Postar um Comentário

    Nenhum comentário encontrado. Seja o primeiro!