Cifra da música: Na Veia - Engenheiros do Hawaii

Esse cifra de Engenheiros do Hawaii já foi acessado por 1291 pessoas.

Comente

A música Na Veia fez muito sucesso quando foi gravada por Engenheiros do Hawaii. Quer conhecer a letra dela? Veja a letra de Na Veia e cante.

Veja também o vídeo da música tocada.


(Gessinger)

Introd:  G  Bb  Am  C *ver dedilhado

(Em  C  D/F#)
se você perguntar por mim
vão dizer que eu ando muito estranho
vão dizer que eu ando por aí

Em       C          Am       C    D      
  quando você perguntar por mim

(Em   C   D/F#)
se você perguntar por mim
vão dizer as coisas mais estranhas
nenhuma resposta vai satisfazer

Em       C         Am      C    D
 quando você perguntar por mim


  G       Bb
! vem !
Am               C
 ver com os próprios olhos

   G       Bb
! vem !
Am               C
 ver a vida como ela é       REFRÃO  2X

(Em  C  D/F#) 2X

(Em  C  D/F#)
se você está mesmo a fim
de saber por onde eu ando
de saber por quê eu ando assim

Em       C             Am       C   D
    é melhor nem perguntar por mim

REFRÃO 2X

Em 

C           D        Em
sem filtro, na veia
C           D/F#          
sem filtro, na veia

SOLO:  G  Bb Am C 4x
e|-15---------------|-15-----------|-15---------------|-15---15---15---15----|
B|---15-------------|---15---------|---15-------------|---15---15---15---15--|
G|-------12^--------|-------12^----|-------12^--------|----------------------|
D|----------1214--|----------12--|----------1214--|----------------------|
A|------------------|--------------|------------------|----------------------|
E|------------------|--------------|------------------|----------------------|

REFRÃO 2X     G  Bb  Am  C


* dedilhado

      G              Bb              Am                C
e|----------3----|---------3----|----------3----|---------3---------
B|-------3----3--|------3----3--|-------1----1--|------1----1-------
G|---------------|--------------|---------------|-------------------
D|---------------|--------------|---------------|-------------------
A|---------------|--1-----------|--0------------|--3----------------
E|---3-----------|--------------|---------------|-------------------






Quer fazer uma correção nesta cifra?







    Comentários (0) Postar um Comentário

    Nenhum comentário encontrado. Seja o primeiro!