Cifra da música: Somos quem podemos ser - Engenheiros do Hawaii

Esse cifra de Engenheiros do Hawaii já foi acessado por 2820 pessoas.

Comente

A música Somos quem podemos ser fez muito sucesso quando foi gravada por Engenheiros do Hawaii. Quer conhecer a letra dela? Veja a letra de Somos quem podemos ser e cante.

Veja também o vídeo da música tocada.


Ritmo: Dedilhado


Como a música é dedilhada, o dedilhado deve ser feito da seguinte forma: º 3 2 1 2 3,
ou seja, sempre iniciando o dedilhado pela base do acorde, depois na corda 3,
depois na 2 e assim por diante.

Eu só tenho violão, e mesmo sem acompanhamento fica legal.

Ouça a música e tudo vai ficar muito claro.

Aulas de violão em Barbacena (MG): Professor Julio (3332-3254)

[INTRODUÇÃO]


   G7+             C7+
E|---------------------------5/7-7-------|
B|-------5/7-7-----5-----5-8-------------|
G|---4-7-------------7-5-----------------|  [2x]
D|-5-------------------------------------|
A|---------------------------------------|
E|---------------------------------------|


   G7+                               C7+
Um dia me disseram que as nuvens não eram de algodão
   G7+                                    C7+
Um dia me disseram que os ventos às vezes erram a direção
  G7+                           C7+
E tudo ficou tão claro, um intervalo na escuridão
    G7+                           C7+
Uma estrela de brilho raro, um disparo para um coração

  Bm                            C7+
A vida imita o vídeo, garotos inventam um novo inglês
  Bm                          C7+
Vivendo num país sedento um momento de embriaguês
Am                 Bm
Somos quem podemos ser
Am                 Bm   C7+
Sonhos que podemos ter


   G7+             C7+
E|---------------------------5/7-7-------|
B|-------5/7-7-----5-----5-8-------------|
G|---4-7-------------7-5-----------------|  [2x]
D|-5-------------------------------------|
A|---------------------------------------|
E|---------------------------------------|


   G7+                          C7+
Um dia me disseram quem eram os donos da situação
    G7+                                C7+
Sem querer eles me deram as chaves que abrem essa prisão
  G7+                             C7+
E tudo ficou tão claro, o que era raro ficou comum
        G7+                          C7+
Como um dia depois do outro, como um dia, um dia comum

  Bm                            C7+
A vida imita o vídeo, garotos inventam um novo inglês
  Bm                          C7+
Vivendo num país sedento um momento de embriaguês
Am                 Bm
Somos quem podemos ser
Am                 Bm   C7+
Sonhos que podemos ter

(solo)
e|-7-8-10-7-8-10s12s10-7-8-10-7-8-10b-10---10-8-7------------|
B|--------------------------------------------------10-8-7-10|
G|-----------------------------------------------------------|
D|-----------------------------------------------------------|
A|-----------------------------------------------------------|
E|-----------------------------------------------------------|

e|15-13-12----------7-8-10-----------------------------------|
B|---------15-13-12---------10-------------------------------|
G|-----------------------------------------------------------|
D|-------------------------------7---------------------------|
A|-----------------------------------------------------------|
E|-----------------------------------------------------------|
(solo por Jonatas Albino)

Aqui há uma diferença em relação ao solo da [INTRODUÇÃO].
Na introdução, o acompanhamento dos acordes é dedilhado.
Aqui não, ou seja, o acorde é executado (apenas a batida
nas cordas, todas de uma vez), mas não é usado o dedilhado.
Observe que isso vale apenas para a primeira e terceira
partes do solo. Na segunda parte é feito dedilhado. Observe:

   G7+             C7+
E|---------------------------5/7-7-------|
B|-------5/7-7-----5-----5-8-------------|
G|---4-7-------------7-5-----------------|  [2x] (Batida nos acordes)
D|-5-------------------------------------|
A|---------------------------------------|
E|---------------------------------------|

   G7+          C7+
E|-7-8-8/10-----7-8-10/12-10---|
B|-----------------------------|
G|-----------------------------|  [2x] (Dedilhado nos acordes)
D|-----------------------------|
A|-----------------------------|
E|-----------------------------|

   G7+           C7+    G7+             C7+
E|-10-8-7---------------12-10-8---------10-8-7----------|
B|--------10-8-7----------------12-10-8--------10-8-----|
G|---------------9--------------------------------------| (Batida nos acordes)
D|------------------------------------------------------|
A|------------------------------------------------------|
E|------------------------------------------------------|


   G7+                               C7+
Um dia me disseram que as nuvens não eram de algodão
       G7+                             C7+
Sem querer eles me deram as chaves que abrem essa prisão
G7+                           C7+
Quem ocupa o trono tem culpa, quem oculta o crime, também
G7+                            C7+                        (Bm   C7+)
Quem duvida da vida tem culpa, quem evita a dúvida, também tem


Am                 Bm
Somos quem podemos ser
Am                 Bm   C7+
Sonhos que podemos ter

G7+


Aê pessoal, em Boa Vista, banda TSI 401 SW,é só chamar, jonatas_hotmail.com

_______________________________________________________





Quer fazer uma correção nesta cifra?







    Comentários (0) Postar um Comentário

    Nenhum comentário encontrado. Seja o primeiro!