Cifra da música: O Papa é Pop - Engenheiros do Hawaii

Esse cifra de Engenheiros do Hawaii já foi acessado por 2659 pessoas.

Comente

A música O Papa é Pop fez muito sucesso quando foi gravada por Engenheiros do Hawaii. Quer conhecer a letra dela? Veja a letra de O Papa é Pop e cante.

Veja também o vídeo da música tocada.


(Humberto Gessinger) 

Introdução: (Dm G Bb C Dm)

E|----10(1T)--8----------------------------------------------------------------|
B|---------------10--8----------6--8--8---------8--8--10--8-------------10--8--|
G|----------------------10--7------------7--10---------------10--7---7---------|
D|-----------------------------------------------------------------------------|
A|-----------------------------------------------------------------------------|
E|-----------------------------------------------------------------------------|

E|----10(1T)--8--------------------8--8------------------------------|
B|---------------10--8----------6---------------8--8--10--8----------|
G|----------------------10--7------------7--10---------------10--7---|
D|-------------------------------------------------------------------|
A|-------------------------------------------------------------------|
E|-------------------------------------------------------------------|

F               C/E                    Bb
Todo mundo tá relendo o que nunca foi lido
F                 C/E              Bb
Todo mundo tá comprando os mais vendidos
F                    C
Qualquer nota, qualquer notícia
Bb                  C
Páginas em branco, fotos coloridas
F                    C
Qualquer nova, qualquer notícia
Bb               C              Bb
Qualquer coisa que se mova é um alvo
              C
E ninguém tá salvo
F               C/E                    Bb
Todo mundo tá revendo o que nunca foi visto
F           C/E              Bb
Tá na cara, tá na capa da revista
F                   C
Qualquer nota, uma nota preta
Bb                 C
Páginas em branco fotos coloridas
F               C
Qualquer rota, rotatividade
  Bb            C                 Bb
Qualquer coisa que se mova é um alvo
              C
E ninguém tá salvo
      Bb          C
Um disparo, um estouro

  Dm             G
O papa é pop, o papa é pop
  Bb         C      Dm
O pop não poupa ninguém
                         G
O papa levou um tiro a queima roupa
  Bb         C      Dm
O pop não poupa ninguém
        Dm
O presidente é pop (o papa é pop)
        G
Um indigente é pop (o papa é pop)
Bb         C      Dm
Nós somos pop também
(o pop não poupa ninguém)
A minha mente é pop
(o papa levou um tiro a queima roupa)
       G
A tua mente é pop
   Bb        C      Dm
O pop não poupa ninguém

F               C
Uma palavra na  tua camiseta
Bb
O planeta na tua cama
F               C
Uma palavra escrita a lápis
      Bb
Eternidade da semana
F                    C
Qualquer nota, qualquer notícia
Bb                  C
Páginas em branco, fotos coloridas
F                C
Qualquer coisa quase nova
Bb              C               Bb
Qualquer coisa que se mova é um alvo
              C
E ninguém tá salvo
       Bb         C
Um disparo, um estouro

  Dm             G
O papa é pop, o papa é pop
   Bb        C      Dm
O pop não poupa ninguém
                         G
O papa levou um tiro à queima roupa
  Bb         C      Dm
O pop não poupa ninguém
O presidente é pop
(o papa é pop)
        G
Um indigente é pop
(o papa é pop)
Bb         C      Dm
Nós somos pop também
(o pop não poupa ninguém)
Antigamente é pop
(o papa levou um tiro a queima roupa)
      G
Atualmente é pop
  Bb         C      Dm
O pop não poupa ninguém

Bb
Toda catedral é populista
É pop, é macumba prá turista
E afinal o que é rock n’ roll?
Os óculos do John, ou o olhar do Paul

solo: (Dm G Bb C Dm)

  Dm             G
O papa é pop, o papa é pop
  Bb         C      Dm
O pop não poupa ninguém
                         G
O papa levou um tiro à queima roupa
  Bb         C      Dm
O pop não poupa ninguém
  Dm             G
O papa é pop, o papa é pop
  Bb         C      Dm
O pop não poupa ninguém
                         G
O papa levou um tiro a queima roupa
  Bb
O pop não poupa,

O pop não poupa
                    (Dm)
O pop não poupa ninguém...





Quer fazer uma correção nesta cifra?







    Comentários (0) Postar um Comentário

    Nenhum comentário encontrado. Seja o primeiro!