Cifra da música: Pose - Engenheiros do Hawaii

Esse cifra de Engenheiros do Hawaii já foi acessado por 956 pessoas.

Comente

A música Pose fez muito sucesso quando foi gravada por Engenheiros do Hawaii. Quer conhecer a letra dela? Veja a letra de Pose e cante.

Veja também o vídeo da música tocada.


Tom: E

Intro solo 2x:

1ª PARTE


E|--------6--------6--------4--------4------2--------2----2--------2-----------------|
B|-----------7-----------------5---------------4------------4------------------------|
G|----5/6-------6-----------------4---------------4------------4---------------------|
D|-----------------------------------------------------------------------------------|
A|-----------------------------------------------------------------------------------|
E|-----------------------------------------------------------------------------------|


2ª PARTE                                                      A    E


E|--------6--------6--------4--------4------2--------2---------0----0----------------|
B|-----------7-----------------5---------------4---------------2----0----------------|
G|--------------6-----------------4---------------4------------2----1----------------|
D|-------------------------------------------------------------2----2----------------|
A|-------------------------------------------------------------0----2----------------|
E|-----------------------------------------------------------------------------------|


Notas para acompanhar o solo: ( F# E B  F# E B  A E )2x


F#         E        B
Vamos passear depois do tiroteio
F#        E           B
Vamos dançar num cemitério de automóveis
   F#       E              B
Colher as flores que nascerem no asfalto

Riff 1(com slide):1x

E|---------------------------------------------------------------------------|
B|-----4/6~~---6/4~~---------------------------------------------------------|
G|---------------------------------------------------------------------------|


C#                  B                    ( F# E B  F# E B  A E )1x
Vamos todo mundo... tudo que se possa imaginar

(Solo 1x)

1ª PARTE


E|--------6--------6--------4--------4------2--------2----2--------2-----------------|
B|-----------7-----------------5---------------4------------4------------------------|
G|----5/6-------6-----------------4---------------4------------4---------------------|
D|-----------------------------------------------------------------------------------|
A|-----------------------------------------------------------------------------------|
E|-----------------------------------------------------------------------------------|


2ª PARTE                                                       A    E


E|--------6--------6--------4--------4------2--------2---------0----0----------------|
B|-----------7-----------------5---------------4---------------2----0----------------|
G|--------------6-----------------4---------------4------------2----1----------------|
D|-------------------------------------------------------------2----2----------------|
A|-------------------------------------------------------------0----2----------------|
E|-----------------------------------------------------------------------------------|


F#         E          B
Vamos duvidar de tudo que é certo
F#         E           B
Vamos namorar à luz do pólo petroquímico
 F#         E          B
Voltar pra casa num navio fantasma

Riff 1(com slide):1x

E|---------------------------------------------------------------------------|
B|-----4/6~~---6/4~~---------------------------------------------------------|
G|---------------------------------------------------------------------------|


C#                 B              ( F# E B  F# E B  A E )1x
Vamos todo mundo... ninguém pode faltar


(Solo 1x)

1ª PARTE


E|--------6--------6--------4--------4------2--------2----2--------2-----------------|
B|-----------7-----------------5---------------4------------4------------------------|
G|----5/6-------6-----------------4---------------4------------4---------------------|
D|-----------------------------------------------------------------------------------|
A|-----------------------------------------------------------------------------------|
E|-----------------------------------------------------------------------------------|


2ª PARTE                                                       A    E


E|--------6--------6--------4--------4------2--------2---------0----0----------------|
B|-----------7-----------------5---------------4---------------2----0----------------|
G|--------------6-----------------4---------------4------------2----1----------------|
D|-------------------------------------------------------------2----2----------------|
A|-------------------------------------------------------------0----2----------------|
E|-----------------------------------------------------------------------------------|



F#     E     B
Se faltar calor, a gente esquenta

Riff 2(com slide):1x

E|---------------------------------------------------------------------------|
B|----4/7~~---------5--5/7~~-------------------------------------------------|
G|---------------------------------------------------------------------------|


F#    E      B
Se ficar pequeno, a gente aumenta
  F#            E     B
E se não for possível, a gente tenta

Riff 3(com slide):1x

E|---------------------------------------------------------------------------|
B|----4/6~~-----6/4~~--------------------------------------------------------|
G|-----------------------5/8~~-----8/6~~-------------------------------------|


E|---------------------------------------------------------------------------|
B|----4/6~~-----6/4~~--------------------------------------------------------|
G|-----------------------4---5/8~~----8/6~~----------------------------------|


C#                      B
Vamos velejar no mar de lama
D#m                          C#
Se faltar o vento, a gente inventa
                        B
Vamos remar contra a corrente
      D#m                    C#
Desafinar do coro dos contentes

Riff 4(com slide):2x

E|---------------------------------------------------------------------------|
B|----4/7~~--------4/7/11~~--------------------------------------------------|
G|---------------------------------------------------------------------------|


( F# E B  F# E B ) (2x)

Riff 3(com slide):1x

E|---------------------------------------------------------------------------|
B|----4/6~~-----6/4~~--------------------------------------------------------|
G|-----------------------5/8~~-----8/6~~-------------------------------------|


E|---------------------------------------------------------------------------|
B|----4/6~~-----6/4~~--------------------------------------------------------|
G|-----------------------4---5/8~~----8/6~~----------------------------------|


C#                      B
Vamos velejar no mar de lama
D#m                          C#
Se faltar o vento, a gente inventa
                        B
Vamos remar contra a corrente
      D#m                    C#
Desafinar do coro dos contentes

( F# E B  F# E B ) (2x) A E F#

Riff 4(com slide):2x

E|---------------------------------------------------------------------------|
B|----4/7~~--------4/7/11~~--------------------------------------------------|
G|---------------------------------------------------------------------------|


Riff 5(com slide):1x

E|---------------------------------------------------------------------------|
B|----5/7~~------------------------------------------------------------------|
G|---------------------------------------------------------------------------|


Quer fazer uma correção nesta cifra?







    Comentários (0) Postar um Comentário

    Nenhum comentário encontrado. Seja o primeiro!