Cifra da música: Se estas Paredes Falassem - Dance Of Days

Esse cifra de Dance Of Days já foi acessado por 914 pessoas.

Comente

A música Se estas Paredes Falassem fez muito sucesso quando foi gravada por Dance Of Days. Quer conhecer as demais músicas? Conheça as letras das músicas gravadas por Dance Of Days e aproveite.

Veja também o vídeo da música tocada.


Intro: 
e|----------------------------------- | 
B|-----7----------------------------- | 
G|-----7-5x----9-------7-------5----- | 
D|---777-------9-------7-------5----- | 
A|-----------999-5x--777-5x--555-5x-- | 
E|----------------------------------- | 

e|----------------------------------- | 
B|-----7----------------------------- | 
G|-----7-5x----9-------7-------5----- | 
D|---777-------9-------7-------5----- | 2x 
A|-----------999-5x--777-5x--555-5x-- | 
E|----------------------------------- | 

se essas paredes falassem 
se contassem cada vez 
que me vi de joelhos 
na escuridão 
com medo de levantar 
e fitar na penumbra 
meus olho no espelho 
dizendo que não 

D A B G


Quer fazer uma correção nesta cifra?







    Comentários (0) Postar um Comentário

    Nenhum comentário encontrado. Seja o primeiro!