Cifra da música: Mais um café gelado por favor - Dance Of Days

Esse cifra de Dance Of Days já foi acessado por 729 pessoas.

Comente

A música Mais um café gelado por favor fez muito sucesso quando foi gravada por Dance Of Days. Quer conhecer a letra dela? Veja a letra de Mais um café gelado por favor e cante.

Veja também o vídeo da música tocada.


p = Pull Off
h = Hammer On
~ = Deixar soar
/ = Slide




Intro Baixo:

# = tocar 8 vezes
% = tocar 4 vezes

G:|-------------------------%---| Repete
D:|--#---%---%------#---%--2----| DUAS
A:|-2---4---0------2---4--------| vezes!
E:|-----------------------------|


Intro Guitarra 1:

   Repete TRÊS vezes:       E depois toca UMA vez essa parte:
e:|------------------|---------------------------------------------|
B:|------------------|---------------------------------------------|
G:|-9--8--------11---|-9--8--------9p8h9p8h9p8h9p8h9p8h9p8h9p8h9p8-|
D:|-9--9---------9---|-9--9----------------------------------------|
A:|------------------|---------------------------------------------|
E:|------------------|---------------------------------------------|


Intro Guitarra 2:

e:|--------7---------|
B:|--------7---------|
G:|------------------| Repete
D:|------------------| QUATRO 
A:|------------------| vezes!
E:|------------------|




Parte do Grito Guitarra 1:

e:|------------------------------------------------------|
B:|------------------------------------------------------|
G:|--9p8h9p8h9p8h9p8h9p8h9p8h9p8h9p8h9p8h9p8h9p8h9p8-/11-|
D:|------------------------------------------------------|
A:|------------------------------------------------------|
E:|------------------------------------------------------|

  Repete DUAS vezes a parte acima e depois:

e:|--------------------|
B:|--------------------|
G:|-(8)-9-8-11--11-11--| Repete
D:|-(9)-9-9--9---9--9--| QUATRO
A:|--------------------| vezes!
E:|--------------------|



Parte do Grito Guitarra 2:

# = tocar 8 vezes
% = tocar 4 vezes

e:|-----------------------------|
B:|--#---%---%------#---%---%---|
G:|-4---6---2------4---6---9----| Repete
D:|-4---6---2------4---6---9----| DUAS
A:|-2---4---0------2---4---7----| vezes!
E:|-----------------------------|






Primeiro Verso Guitarra 1 e 2:

# = tocar 8 vezes
% = tocar 4 vezes

e:|-------------|
B:|----------#--| Repete
G:|--%---%--9---| QUATRO 
D:|-4---6---9---| vezes!
A:|-4---6---7---|
E:|-2---4-------|





Primeiro Refrão Guitarra 1:

# = tocar 8 vezes
% = tocar 4 vezes
* = tocar 2 vezes

     tocar UMA vez isso:     E UMA vez isso:
e:|-----------------------|-----------------|
B:|--%---%---%----*---*---|----%---%---#----|
G:|-4---6---9---11---9----|---4---6---9-----|
D:|-4---6---9-------------|---4---6---9-----|
A:|-2---4---7----9---7----|---2---4---7-----|
E:|-----------------------|-----------------|

  Repete tudo DUAS vezes



Primeiro Refrão Guitarra 2:

# = tocar 8 vezes
% = tocar 4 vezes

e:|-------------|
B:|--%---%---#--| Repete
G:|-4---6---9---| QUATRO
D:|-------------| vezes!
A:|-2---4---7---|
E:|-------------|





Segundo Verso Guitarra 1:

     Repete 3 vezes:      E 1 vez isso:
e:|--------------------|-----------------|
B:|--------------------|-----------------|
G:|-(8)-9-8-11--11-11--|-11-1111-11--11--| Repete
D:|-(9)-9-9--9---9--9--|--9--9-9--9---9--| DUAS 
A:|--------------------|-----------------| vezes!
E:|--------------------|-----------------|



Segundo Verso Guitarra 2:

# = tocar 8 vezes
% = tocar 4 vezes

  Use um pouco de Palm-Muting

e:|-----------------------------|
B:|--#---%---%------#---%---%---|
G:|-4---6---2------4---6---9----| Repete
D:|-4---6---2------4---6---9----| DUAS
A:|-2---4---0------2---4---7----| vezes!
E:|-----------------------------|





Segundo Refrão Guitarra 1:

# = tocar 8 vezes
% = tocar 4 vezes
* = tocar 2 vezes

    Toca TRÊS vezes isso:   E UMA vez isso:
e:|-----------------------|-----------------|
B:|--%---%---%----*---*---|----%---%---#----|
G:|-4---6---9---11---9----|---4---6---9-----|
D:|-4---6---9-------------|---4---6---9-----|
A:|-2---4---7----9---7----|---2---4---7-----|
E:|-----------------------|-----------------|



Segundo Refrão Guitarra 2:

  Igual ao Primeiro.




Terceiro Verso Guitarra 1:

# = tocar 8 vezes
% = tocar 4 vezes

e:|-------------|
B:|----------#--| Repete
G:|--%---%--9---| QUATRO 
D:|-4---6---9---| vezes!
A:|-4---6---7---|
E:|-2---4-------|



Terceiro Verso Guitarra 2:

# = tocar 8 vezes
% = tocar 4 vezes

    Repete DUAS vezes isso:      E para em:
e:|----------------------------|------------|
B:|----------#------%----%---#-|------------|
G:|--%---%--9-----11---13---9--|--11~~~~~~--|
D:|-4---6---9------------------|------------|
A:|-4---6---7------9---11---7--|---9~~~~~~--|
E:|-2---4----------------------|------------|



Parada: (Só na Guitarra 1)

e:|------------------------------------------|
B:|------------------------------------------|
G:|-9---------8--------11-------9--8------11-|
D:|-9-----------9-------9-------9--9-------9-|
A:|------------------------------------------|
E:|------------------------------------------|

e:|------------------------------------------|
B:|------------------------------------------|
G:|-9--8-----9p8h9p8h9p8h9p8h9p8h9p8h9p8h9p8-|
D:|-9--9-------------------------------------|
A:|------------------------------------------|
E:|------------------------------------------|



Parte do Grito Final Guitarra 1:

                Toca UMA vez essa parte:
e:|--------------------------------------------------------|
B:|--------------------------------------------------------|
G:|-9p8h9p8h9p8h9p8h9p8h9p8h9p8h9p8h9p8h9p8h9p8h9p8-/11-11-|
D:|--------------------------------------------------------|
A:|--------------------------------------------------------|
E:|--------------------------------------------------------|

     Repete 6 vezes:      E acaba em:
e:|--------------------|----------------|
B:|--------------------|----------------|
G:|-(8)-9-8-11--11-11--|-(8)-9p8~~~~~~~-| 
D:|-(9)-9-9--9---9--9--|-(9)-9~~~~~~~~~-| 
A:|--------------------|----------------|
E:|--------------------|----------------|



Parte do Grito Final Guitarra 2:

  Igual ao Terceiro Verso.





O Baixo segue mais ou menos a Guitarra 2 durante a música, 
exceto na Primeiro e Terceiro Verso, onde ele faz algumas
notas diferente em Mi.





Letra:


(Intro)
Hoje não... Por favor me deixa em paz. 
Não quero pensar em mais nada... 
Me leva daqui pra algum outro lugar... 
onde ninguém vai me falar 


[Parte do Grito]


(Primeiro Verso)
Como devo mudar o mundo, como devo me comportar 
e das coisas em que devo pensar. 
Eu só quero um sorriso, quero sair e namorar. 
Esta noite já não posso mais 

(Primeiro Refrão)
Ficar e ouvir você falar sobre dinheiro e trabalhar, 
sobre coisas que eu não vou mudar... 
Quem sabe um outro dia? Hoje estou indo embora 
não tenho hora pra voltar. 



(Segundo Verso)
Não importa se o que eu sinto não faz sentido pra você, 
esta noite eu vou ver o mar... 
sentir as ondas em meus pés, 
sentir que meus dias valem muito mais que 

(Segundo Refrão)
Ficar e ouvir você falar sobre dinheiro e trabalhar, 
sobre coisas que eu não vou mudar... 
Quem sabe um outro dia? Hoje estou indo embora 
não tenho hora pra voltar. 

(Terceiro Verso)
Você torna tudo tão difícil, porque se importa demais 
com o que os outros vão pensar... 
Ninguém vai devolver sua vida quando 
perceber que deixou tudo pra trás... 



(Parada)
Ficar e ouvir você falar sobre dinheiro e trabalhar, 
sobre coisas que eu não vou mudar... 
Quem sabe um outro dia? Hoje estou indo embora 
não tenho hora pra voltar. 


[Parte do Grito Final]




Quer fazer uma correção nesta cifra?







    Comentários (0) Postar um Comentário

    Nenhum comentário encontrado. Seja o primeiro!