Cifra da música: Me Leve Às Estrelas - Dance Of Days

Esse cifra de Dance Of Days já foi acessado por 642 pessoas.

Comente

A música Me Leve Às Estrelas fez muito sucesso quando foi gravada por Dance Of Days. Quer conhecer a letra dela? Veja a letra de Me Leve Às Estrelas e cante.

Veja também o vídeo da música tocada.


Intro

e|----------------------------------------------------------------------
B|----------------------------------------------------------------------
G|--7—-7/12-12-12-14-12--12/7-7---7/14-14-—14/12-12-12-12--10-10-10-9-9-
D|----------------------------------------------------------------------
A|--5--5/10-10—10-12-10—-10/5—5---5/12-12--12/10-10-10-10--8--8--8--7-7-
E|----------------------------------------------------------------------

Riff 1

  12x        6x        6x          12x       6x
e|-----------------------------------------------------------------------------
B|-----------------------------------------------------------------------------
G|--7—--7/12—-12--12-14--12--12-12/7--7--7/14—-14-—14/12-12-12-12--10-10-10-9-9
D|-----------------------------------------------------------------------------
A|--5---5/10—-10-—10-12--10—-10-10/5—-5--5/12—-14--12/10-10-10-10--8--8--8--7-7
E|-----------------------------------------------------------------------------
Riff 2

e|-------------------------------------------------------------------
B|-------------------------------------------------------------------
G|--*-*------5-5-7-7-7-7---*-*------12-12-12-14-14-14-12-12----------
D|--7-7---7--5-5-7-7-7-7---7-7---7-----------------------------------
A|--7-7---7--3-3-5-5-5-5---7-7---7--10-10-10-12-12-12-10-10----------
E|--5-5---5----------------5-5---5-----------------------------------
*PM

e|-------------------------------------------------------------------
B|-------------------------------------------------------------------
G|--*-*------5-5-7-7-7-7---*-*------12-12-12-10-10-10-9-9-7----------
D|--7-7---7--5-5-7-7-7-7---7-7---7-----------------------------------
A|--7-7---7--3-3-5-5-5-5---7-7---7--10-10-10—-8--8--8-7-7-5----------
E|--5-5---5----------------5-5---5-----------------------------------   
*PM

Riff 3                 Riff 4
                          8x  8x   8x  8x
e|--------------------  e|-----------------------
B|--------------------  B|-----------------------
G|--7—--12------------  G|--7---12---------------
D|-----------9---7----  D|-----------9---7-------
A|--5---10------------  A|--5---10---------------
E|-----------7---5----  E|-----------7---5-------

Riff 5
  12x  12x   12x  12x
e|-------------------------------------------------------------------
B|-------------------------------------------------------------------
G|--7----12----------------------------------------------------------
D|--7----12----9----7------------------------------------------------
A|--5----10----9----7------------------------------------------------
E|-------------7----5------------------------------------------------

xxxxxxxxxxxxxxxxxxxxxxxxxxxxxxxxxxxxxxxxxxxxxxxxxxxxxxxxxxxxxxxxxxxxx

Intro

1ª parte

(Riff 1 – 2x) – (D G A G  D A G F E)
Não fala mais nada e deixa viver sem culpa porque
não há nada que se possa fazer agora que
sem âncoras, este navio segue além do sol 
e nada mais vai voltar a ser como em dias que 

2ª parte

(Riff 2) – (A C D  A G A G  A C D  A G F E D)
meus passos não diziam nada e eu caminhava sem saber 
como ia voltar pra casa antes do dia amanhecer


(Riff 3)
(Riff 4 – 2x) – (D G B A)
E se o vento carregar pra longe o teu olhar 
e tocar o céu ser dor maior que perceber 
que as nuvens de algodão tem marcas de minhas mãos... 
mesmo assim te guardarei, porque agora tanto faz... 

Refrão 2x

(Riff 5) – (D G B A)
Me leve às estrelas sem pensar que amanhã tudo pode mudar. 
Me deixa sonhar em paz porque eu já não penso em acordar.

Repete Intro
Repete 1ª parte (com variações)
Repete 2ª parte 
Repete Riff 5 2x
Repete refrão 2x
Repete Riff 5 2x
Termina com um D






Quer fazer uma correção nesta cifra?







    Comentários (0) Postar um Comentário

    Nenhum comentário encontrado. Seja o primeiro!