Cifra da música: Corvos do Paraíso - Dance Of Days

Esse cifra de Dance Of Days já foi acessado por 569 pessoas.

Comente

A música Corvos do Paraíso fez muito sucesso quando foi gravada por Dance Of Days. Quer conhecer a letra dela? Veja a letra de Corvos do Paraíso e cante.

Veja também o vídeo da música tocada.


*=abafando
Intro (2x)
|--------------------------------------------------------------------|
|--------------------------------------------------------------------|
|*-------9------------9------5555-4444-------9---------9-----12--14--|
|*----99---9-------99---9----5555-4444-----99--9-----99--9---12--14--|
|*-77--------7--77-------7---3333-2222---77-----7--77-----7--10--12--|
|--------------------------------------------------------------------|

Verso
Palavras mais palavras...(Repete esses acordes ate voltar pra Intro)
|----------------------------------------------------------------|---------------------------------------------|
|----------------------------------------------------------------|---------------------------------------------|
|-14--12-11--9-11--1212-11-12-14-------1212-11-11-1212-14--------|--5555--10-9---12--14----5555--10-9---14--12-|
|-14--12-11--9-11--1212-11-12-14--(2x)-1010-9--9--1010-12--(2x)--|--5555--10-9---12--14----5555--10-9---14--12-|
|-12--10-9---7-9---1010-9--10-12---------------------------------|--3333--8--7---10--12----3333--8--7---12--10-|
|----------------------------------------------------------------|---------------------------------------------|

Repete
Intro(1x)

|------------------------------------------------------------------|---------------------------------------------------|
|------------------------------------------------------------------|---------------------------------------------------|
|-14--12-11--9-11--1212-11-12-14---------1212-11-11-1212-14--------|--5555--10-9-12--14-----5555--10--9--14--12--------|
|-14--12-11--9-11--1212-11-12-14---(2x)--1010-9--9--1010-12-(2x)---|--5555--10-9-12--14-----5555--10--9--14--12--------|
|-12--10-9---7-9---1010-9--10-12-----------------------------------|--3333--8--7-10--12-----3333--8---7--12--10--------|
|------------------------------------------------------------------|---------------------------------------------------|

|-----------------------------------------------|
|-----------------------------------------------|
|--5555---10-9-10-9-10-9------------------------|
|--5555---10-9-10-9-10-9------------------------|
|--3333---8--7-8--7-8--7------------------------|
|-----------------------------------------------|




Quer fazer uma correção nesta cifra?







    Comentários (0) Postar um Comentário

    Nenhum comentário encontrado. Seja o primeiro!