Cifra da música: Vou Voar - Luan Santana

Esse cifra de Luan Santana já foi acessado por 1355 pessoas.

Comente

A música Vou Voar fez muito sucesso quando foi gravada por Luan Santana. Quer conhecer as demais músicas? Conheça as letras das músicas gravadas por Luan Santana e aproveite.

Veja também o vídeo da música tocada.


 (intro) A E D A E D

       A E
 Vou voar  quem quer amar
   D A
 Sonhar alto voa sem parar
         E D
 Eu não vou ficar parado vendo
              A
 Você se afastar
         E
 A Melhor é você
        D
 Meu destino é você
                  (solo)
 Fui feito pra você

 (solo 2x) A E D A E D

 E|--5/7--5--5/7--4--4/5--4------------|
 B|--5/7--5--5/7--5--5----5--7-5-5-3-3-|
 G|------------------------------------|
 D|------------------------------------|
 A|------------------------------------|
 E|------------------------------------|

 E|--5/7--5--5/7--4--4/5--4----------5-|
 B|--5/7--5--5/7--5--5----5--7-5-5-3---|
 G|------------------------------------|
 D|------------------------------------|
 A|------------------------------------|
 E|------------------------------------|

 E|-------------------------------------|
 B|-------------------------------------|
 G|-----------------------------------2-|
 D|--2h4-4-4-2h4-4-4-2h4-4-4-2h4-4-4--2-|
 A|-------------------------------------|
 E|-------------------------------------|

 A E F#m
 Eu sonhei subir bem alto
       D A
 E um dia te alcançar
           E F#m
 Minha estrela preferida
       D A
 Seu brilho está no ar
      E F#m
 Magnífica presença
       D A
 Engrandeçe o meu ser
       E F#m
 O seu corpo tem a essência
        D
 Que explica o prazer

 F#m E D
 Um cometa acertou em cheio
          F#m
 O meu coração
      E D
 E estremesseu meu mundo
                  ( A )
 Toda a constelação

 (refrão)
      A E
 Vou voar  quem quer amar
    D A
 Sonhar alto voa sem parar
           E D
 Eu não vou ficar parado vendo
               A
 Você se afastar
     E
 A Melhor é você
       D
 Meu destino é você
                  A
 Fui feito pra você

 ( A E D A E D ) (2x)

 E|--5/7--5--5/7--4--4/5--4------------|
 B|--5/7--5--5/7--5--5----5--7-5-5-3-3-|
 G|------------------------------------|
 D|------------------------------------|
 A|------------------------------------|
 E|------------------------------------|

 E|--5/7--5--5/7--4--4/5--4----------5-|
 B|--5/7--5--5/7--5--5----5--7-5-5-3---|
 G|------------------------------------|
 D|------------------------------------|
 A|------------------------------------|
 E|------------------------------------|

 E|--------------|
 B|--------------|
 G|------2-------|
 D|--2h4--2/4--2-|
 A|--------------|
 E|--------------|

 F#m E D
 Um cometa acertou em cheio
 O meu coração
 F#m E D
 E estremesseu meu mundo
                  ( A )
 Toda a constelação

 (refrão)
      A E
 Vou voar  quem quer amar
   D A
 Sonhar alto voa sem parar
         E D
 Eu não vou ficar parado vendo
              A
 Você se afastar
         E
 A Melhor é você
        D
 Meu destino é você

 Fui feito pra você

 ( A E D A E D ) (2x)

 E|--5/7--5--5/7--4--4/5--4-----------------5---5---5------------|
 B|--5/7--5--5/7--5--5----5--7-5-5-3-3--------3---3---3--2-3-3/5-|
 G|--------------------------------------------------------------|
 D|--------------------------------------------------------------|
 A|--------------------------------------------------------------|
 E|--------------------------------------------------------------|

 F#m D A E
 Alimenta a alma ao tentar buscar você
 F#m D A
 Tua voz me acalma
 E
 Me ensina ter você
 D
 Me ensina ter você

 (refrão 2x)

 ( A E D A E D ) (2x)

 E|--5/7--5--5/7--4--4/5--4------------|
 B|--5/7--5--5/7--5--5----5--7-5-5-3-3-|
 G|------------------------------------|
 D|------------------------------------|
 A|------------------------------------|
 E|------------------------------------|

 E|--5/7--5--5/7--4--4/5--4----------5-|
 B|--5/7--5--5/7--5--5----5--7-5-5-3---|
 G|------------------------------------|
 D|------------------------------------|
 A|------------------------------------|
 E|------------------------------------| 


Quer fazer uma correção nesta cifra?







    Comentários (0) Postar um Comentário

    Nenhum comentário encontrado. Seja o primeiro!