Cifra da música: Meteoro - Luan Santana

Esse cifra de Luan Santana já foi acessado por 2660 pessoas.

4.50 / 5 - 2
Comente

A música Meteoro fez muito sucesso quando foi gravada por Luan Santana. Quer conhecer as demais músicas? Conheça as letras das músicas gravadas por Luan Santana e aproveite.

Veja também o vídeo da música tocada.


  A E F#m D
   Te dei o sol, te dei o mar  Pra ganhar seu coração  Você é raio de saudade
                A E F#m
 Meteoro da paixão  Explosão de sentimentos  Que eu não puder acreditar
             D
 Ah!  como é bom poder te amar

 (solo)

 (parte 1)
 E|-----------------------|
 B|-----------------------|
 G|-------2-2-2-2-2-2-2-2-|
 D|-------2-2-2-2-2-2-2-2-|
 A|-0-2/4-----------------|
 E|-----------------------|

 (parte 2)
 E|-----------------|
 B|-3/5-5-5-5-5-5-5-|
 G|-2/4-4-4-4-4-4-4-|
 D|-----------------|
 A|-----------------|
 E|-----------------|

 (parte 3)
 E|-------2-0-2----|
 B|--3-----------2-|
 G|-2---1/2-1-2--2-|
 D|----------------|
 A|----------------|
 E|----------------|

 (parte 4)
 E|---------------|
 B|---------------|
 G|---2-2-2-2-2-2-|
 D|---2-2-2-2-2-2-|
 A|---------------|
 E|---------------|

 (parte 5)
 E|-----------------|
 B|-3/5-5-5-5-5-5-5-|
 G|-2/4-4-4-4-4-4-4-|
 D|-----------------|
 A|-----------------|
 E|-----------------|

 (parte 6)
 E|--------9-7-7/9-9\-5-|
 B|-3-------------------|
 G|2---7h9-9-7-7/9-9\-6-|
 D|---------------------|
 A|---------------------|
 E|---------------------|

 (primeira parte)

 A E F#m D A
   Depois que eu te conheci fui mais feliz  Você é exatamente o que eu sempre quis
                    E F#m D
 ela se encaixa perfeitamente em mim  o nosso quebra-cabeça teve fim

 (segunda parte)
 E|-----10p9----12-----10p9---12-----10p9---12----------|
 B|---9------9-------9------9------9------9-------------|
 G|-9--------------9-------------9----------------------|
 D|-----------------------------------------------------|
 A|-----------------------------------------------------|
 E|-----------------------------------------------------|

 E|-------3------------5--------5-------5---------------|
 B|-----3---3----------5--------5-------5---------------|
 G|---3-------3------7------7---------7-----7-----------|
 D|-4--------------7------7---7-----7-----7---7---------|
 A|--------------5----------------5---------------------|
 E|-----------------------------------------------------|

 ( A9 A ) F#m D9
   se for sonho não me acorde  eu preciso flutuar  pois só quem sonha
     E
 consegue alcançar

 A E F#m D
   Te dei o sol, te dei o mar  Pra ganhar seu coração  Você é raio de saudade
                A E F#m
 Meteoro da paixão  Explosão de sentimentos  Que eu não puder acreditar
             D
 Ah!  como é bom poder te amar

 (1 e 2 partes) (refrão)

 (terceira parte)

 A G#m F#m E D A
   Tão veloz   quanto a luz; Teu Universo eu viajei;
         F#m E D E
 Vem me guia, me conduz; Que pra sempre te amarei;

 (refrão 2x)

 (solo final)
 E|-------------------------------------------------5-------|
 B|----------------------3/5-5-5-5-5-5-5-----7--5-7---7-5---|
 G|-------2-2-2-2-2-2-2--2/4-4-4-4-4-4-4-5/7--------------7-|
 D|-------2-2-2-2-2-2-2-------------------------------------|
 A|-0-2/4---------------------------------------------------|
 E|---------------------------------------------------------|

 E|----------------------------------------|
 B|----------------------------------------|
 G|-6-6\4-4-----2--------------------------|
 D|---------2-4----------------------------|
 A|----------------------------------------|
 E|----------------------------------------| 


Quer fazer uma correção nesta cifra?








    Comentários (0) Postar um Comentário

    Nenhum comentário encontrado. Seja o primeiro!