Cifra da música: Sufoco - Luan Santana

Esse cifra de Luan Santana já foi acessado por 1893 pessoas.

Comente

A música Sufoco fez muito sucesso quando foi gravada por Luan Santana. Quer conhecer a letra dela? Veja a letra de Sufoco e cante.

Veja também o vídeo da música tocada.


 (intro) G F G

 G|-777--10--7--5-3
 A|-555--8--9--7-5

 (refrão)
 C G
 Eu sei que é amor e sinto pra valer
                  Am G
 Pois por você eu dou a cara pra bater
                  C
 Se eu te peço um Beijo mata meu
  G F
 desejo e tira o meu sufoco com o seu
   G
 prazer

 E|- |---------------8-8-6-4-6--6-6-10-6-8--13-13-13-11-9-11---|
 B|- |---------------------------------------------------------|
 G|- |-----------4---------------------------------------------|
 D|- |-----3-4-6-----------------------------------------------|
 A|- |-4-6-----------------------------------------------------|
 E|- |---------------------------------------------------------|

 E|- |-9-9-13-9-11-13-13-13-11-9-11-------------------------------
 B|- |-------------------------------9-9-13-9-11-13-13-13-11-9-11-

 (parte 1)
  C G
 Como que eu faço pra tirar da cabeça
            Am F
 Sendo que você não sai do meu coração
                C G
 Sempre que me pede pra que eu te esqueça
         Am F
 Fico no sufoco com essa paixão

 Dm G C
 Eu não sou brinquedo, mas você me pisa
               E Am
 E sem querer judia do meu coração
              F
 E faz minha cabeça,
             Dm G
 Sempre que decido te dizer um não

 (refrão 2x)

 (parte 1)

 (refrão 2x)

 G C G
 Eu sei que é amor e sinto pra valer
                  Am G
 Pois por você eu dou a cara pra bater
                  C G
 Se eu te peço um Beijo mata meu desejo
               F G C Am
 E tira o meu sufoco com o seu prazer
 F G C Am F G C
 E tira o meu sufoco com o seu prazer 


Quer fazer uma correção nesta cifra?








    Comentários (0) Postar um Comentário

    Nenhum comentário encontrado. Seja o primeiro!