Cifra da música: Cantada - Luan Santana

Esse cifra de Luan Santana já foi acessado por 1059 pessoas.

Comente

A música Cantada fez muito sucesso quando foi gravada por Luan Santana. Quer conhecer a letra dela? Veja a letra de Cantada e cante.

Veja também o vídeo da música tocada.


Tom: G# (com acordes na forma de G)

 intro:  G


E|---------------------------------------|
B|---------------------------------------|
G|---------0-----------------------------|
D|-4/5--5--------------------------------| (2x)
A|-----------5--5------------------------|
E|---------------------------------------|



começo: G

E|---------------------------------------|
B|---------------------------------------|
G|---------0-----------------------------|
D|-4/5--5--------------------------------| 
A|-----------5--5------------------------|
E|---------------------------------------|

     Pela luz do sol que me ilumina,

     G
E|---------------------------------------|
B|---------------------------------------|
G|---------0-----------------------------|
D|-4/5--5--------------------------------| 
A|-----------5--5------------------------|
E|---------------------------------------|   

  Não existe nada mais que me fascina,

     C
E|-0-----------|
B|-1-----------|
G|-0---2/4---2-|
D|-2-----------|
A|-3-----------|
E|-0-----------|

Que te ver chegar.
    G

E|---------------------------------------|
B|---------------------------------------|
G|---------0-----------------------------|
D|-4/5--5--------------------------------| 
A|-----------5--5------------------------|
E|---------------------------------------|

 Com a pele bronzeada e a boca vermelha,

    G

E|---------------------------------------|
B|---------------------------------------|
G|---------0-----------------------------|
D|-4/5--5--------------------------------| 
A|-----------5--5------------------------|
E|---------------------------------------|

 E esse sorrisão de orelha a orelha,


    C
E|-0--------|
B|-1--------|
G|-0--------|
D|-2---5//--|
A|-3--------|
E|-0--------|

 Vai me faltando ar.

     D
E|-2-|
B|-3-|
G|-2-|
D|-0-|
A|-0-|
E|-0-|
Se esse sorriso for pra mim,

     C
E|-0-|
B|-1-|
G|-0-|
D|-2-|
A|-3-|
E|-0-|
 Eu sou o cara que tem mais sorte no mundo


E|---------------------------------------|
B|---------------------------------------|
G|---------0-----------------------------|
D|-4/5--5--------------------------------| (1X) 
A|-----------5--5------------------------|
E|---------------------------------------|


D
 Azar de quem perdeu,agora sou eu
C                         C/B
Quem vai te queimar no meu fogo 
Am             D4   D
E amanhã vai ter de novo

                              Am
E|-------------------------|-0-|
B|-------------------------|-1-|
G|--------0----------------|-2-|
D|--0/2------0-------------|-2-|
A|--------------3--2--0----|-0-|
E|-----------------------3-|-0-|

E ás nove da manhã,

 Am
Quando você acordar

D                G
E se perguntar como foi ? como é ?


    Am
E|-0---------------------|
B|-1---------------------|
G|-2--2--0---------------|
D|-2--0----4--2--0-------|
A|-0---------------3--2--|
E|-0---------------------|

A gente só saiu pra jantar e foi ficando,


    Am D
E|-0-2-----------|
B|-1-3-----------|
G|-2-2-----------|
D|-2-0---0-------|
A|-0-0------3--2-|
E|-0-0-----------|

É que a gente só saiu pra jantar e foi ficando,

Am              D
A gente saiu e ficou pro café.
                                                                            

                                                                              G
E|---------------------------------------|----------------------------------3-|
B|---------------------------------------|----------------------------------3-|
G|---------0-----------------------------|-------0------0----0----0---------0-|
D|-4/5--5--------------------------------|--4/5-------4----2----0--------0--0-|
A|-----------5--5------------------------|---------------------------0/2----2-|
E|---------------------------------------|----------------------------------3-|


Quer fazer uma correção nesta cifra?








    Comentários (0) Postar um Comentário

    Nenhum comentário encontrado. Seja o primeiro!