Cifra da música: Você Não Sabe o Que É Amor - Luan Santana

Esse cifra de Luan Santana já foi acessado por 1294 pessoas.

1.00 / 5 - 1
Comente

A música Você Não Sabe o Que É Amor fez muito sucesso quando foi gravada por Luan Santana. Quer conhecer as demais músicas? Conheça as letras das músicas gravadas por Luan Santana e aproveite.

Veja também o vídeo da música tocada.


 (solo base intro 2x) F# C#9 B9

 (parte 1)

 E|---------------------------------------------------|
 B|-7-7-7-7-7-7-7-7-6-6-6-7-7-7-9-9-4-4-4-4-4-4-4-----|
 G|-6-6-6-6-6-6-6-6-6-6-6-6-6-6-6-6-4-4-4-4-4-4-4-----|
 D|---------------------------------------------------|
 A|---------------------------------------------------|
 E|---------------------------------------------------|

 E|-2-2-2-2--2-2--------------------------------------|
 B|-2-2-2-2--2-2--------------------------------------|
 G|-4-4-4-4--4-4--------------------------------------|
 D|-4-4-4-4--4-4--------------------------------------|
 A|-2-2-2-2--2-2--------------------------------------|
 E|---------------------------------------------------|

 (parte 2)

 E|---------------------------------------------------|
 B|-6h7-6-7-6-7-7/9-------------6-7-6-7-7/9-----------|
 G|-----------------8-6/8-6-4-6------------8-6/8-6-4-3|
 D|---------------------------------------------------|
 A|---------------------------------------------------|
 E|---------------------------------------------------|

 F# C#9
   Não use mais o plural
      B9
 Não fale de nos dois como se tudo ainda fosse igual
 F# C#9
    Não tente se desculpar
     B9 D#m7
 Você não tem moral pra me dizer que sabe o que é amar.

 (pré-refrão)

 E|-6---6-----4---4-----2---2-----2--2-2-2-2-|
 B|-7-----7---4-----4---2-----2---2--2-2-2-2-|
 G|-6-6-----6-6-6-----6-4-4-----4-4--3-3-3-3-|
 D|-8---------6---------4---------4--4-4-4-4-|
 A|-6---------4---------2---------2--4-4-4-4-|
 E|----------------------------------2-2-2-2-|

        C#9 B9
 Eu te juro,  nunca mais
 Nunca mais vou me entregar.

 (refrão)

 (1ª parte - ritmo normal da base do solo - ↓↓↑↑↓↑ )

 (2ª parte)

 E|-6---6-----4---4-----2---2-----2----------|
 B|-7-----7---4-----4---2-----2---2----------|
 G|-6-6-----6-6-6-----6-4-4-----4-4----------|
 D|-8---------6---------4---------4----------|
 A|-6---------4---------2---------2----------|
 E|------------------------------------------|

 F# C#9 D#m7
    Pode ir, tudo bem
    B9
 Você não sabe o que é gostar de alguém
 F# C#9 D#m7
     Pode rir, "tô" legal
      B9
 E o que eu sofri espero que não sofra igual
 D#m7 C#9 B9
     Fiquei mal, mais  passou
     Você não sabe o que é amor.

 (intro)

 F# C#9
    Não fale mais do futuro
      B9
 Não fique aí pensando que eu giro em torno do seu mundo
  F# C#9
     Não vamos mais 'se' enganar
      B9 D#m7
 Tem marcas dessa vida que o tempo não vai apagar.

        C#9 B9
 Eu te juro,  nunca mais
 Nunca mais vou me entregar.

  F# C#9 D#m7
     Pode ir, tudo bem
    B9
 Você não sabe o que é gostar de alguém
 F# C#9 D#m7
    Pode ir, "tô" legal
      B9
 E o que eu sofri espero que não sofra igual
 D#m7 C#9 B9
        Fiquei mal, mais passou
        Você não sabe o que é amor.

 (terceira parte)

 E|-6---6-----4---4-----2---2-----4---4------|
 B|-7-----7---4-----4---2-----2---4-----4----|
 G|-6-6-----6-6-6-----6-4-4-----4-6-6-----6--|
 D|-8---------6---------4---------6----------|
 A|-6---------4---------2---------4----------|
 E|------------------------------------------|

 (final) ( C#9 com ritmo na base do solo ↓↓↑↑↓↑ )

 D#m7 C#9 B9
    “Olhando em meu olhar você vai perceber que não há mais
                                           D#m7
 tempo pra nos dois.  Eu te amei do jeito mais profundo
                     C#9 B9
 que alguém pode amar outra pessoa.  Mas eu desisto de
 você, acabou.
     C#9
 Acabou.

 (solo)
 E|-14-14-14-14-14-14-14-14---------------------------|
 B|-14-14-14-14-14-14-14-14---------------------------|
 G|---------------------------------------------------|
 D|---------------------------------------------------|
 A|---------------------------------------------------|
 E|---------------------------------------------------|

 E|-13-13-13-14-14-14-16-16-11-11-11-11---------------|
 B|-14-14-14-14-14-14-14-14-12-12-12-12---------------|
 G|---------------------------------------------------|
 D|---------------------------------------------------|
 A|---------------------------------------------------|
 E|---------------------------------------------------|

 E|---------------------------------------------------|
 B|---------------------------------11-12-11----------|
 G|----------------8-10-11-10-11-13----------13-10-11-|
 D|------8-9-8-9-11-----------------------------------|
 A|-9-11----------------------------------------------|
 E|---------------------------------------------------|

 E|---------------------------------------------------|
 B|-------14-12-11-12p11------------------------------|
 G|-10/11----------------11---------------------------|
 D|---------------------------------------------------|
 A|---------------------------------------------------|
 E|---------------------------------------------------|

 E|---11-11-11-9-9-7-7--------------------------------|
 B|--------------------11-11-9-9-6-7-7-7-7------------|
 G|---8--8--8--6-6-4-4--------------------------------|
 D|--------------------8--8--6-6-3-4-4-4-4------------|
 A|---------------------------------------------------|
 E|---------------------------------------------------|

 (intro)

 (repete refrão 2x)

 ( F# C#9 B9 )
                                   F# C#9 B9
 Você não sabe o que é o amor...
 Você não sabe o que é o amor... 


Quer fazer uma correção nesta cifra?







    Comentários (0) Postar um Comentário

    Nenhum comentário encontrado. Seja o primeiro!