Cifra da música: Você do Meu Lado - Luan Santana

Esse cifra de Luan Santana já foi acessado por 1170 pessoas.

1.00 / 5 - 1
Comente

A música Você do Meu Lado fez muito sucesso quando foi gravada por Luan Santana. Quer conhecer a letra dela? Veja a letra de Você do Meu Lado e cante.

Veja também o vídeo da música tocada.


(intro) F# Ebm B9 C#9

 E |2-2-2-2-2-2-2-2-------------------------------------------------|
 B |-2-2-2-2-2-2-2-2/7-7-6-6-4-4--7-7-6-6-4-4-7-7-6-6-4-4-----------|
 G |----------------------------6------------6------------6---6-----|
 D |---------------------------------------------------------8-8-6--|
 A |----------------------------------------------------------------|
 E |----------------------------------------------------------------|

 E |----------------------------------------------------------------|
 B |--7-7-6-6-4-4--7-7-6-6-4-4-7-7-6-6-4-4--------------------------|
 G |-------------6------------6-----------6--6-6/8-6----------------|
 D |----------------------------------------8-8---------------------|
 A |----------------------------------------------------------------|
 E |----------------------------------------------------------------|

   F# Ebm
 Quando olho as estrelas no céu
              B9 C#9
 Lembro teus olhos de cristal e tua boca de mel
    F# Ebm
 Sentia os seus lábios se encontrando com os meus
        B9 C#9
 Não consigo acreditar como tudo se perdeu
         B9
 Então; deixa eu te mostrar
        C#9
 Porque tô sofrendo assim
     F# Ebm
 Se tá ruim pra você,com certeza tá pra mim
            B9 C#9 F# B9 C#9
 É que meu peito machucado, só cura com você do meu lado

 F# Ebm
 Corre e vem me dar, seu coração
 B9 C#9
 Não se entregue mais, a uma triste ilusão
 F# Ebm
 Quero o seu amor Provar dos teus carinhos
 B9 C#9 F# Ebm B9 C#9
 Não me deixe mais, chorando aqui sozinho, Amor...

 (repete tudo)

 F# Ebm
 Corre e vem me dar, seu coração
 B9 C#9
 Não se entregue mais, a uma triste ilusão
 F# Ebm
 Quero o seu amor Provar dos teus carinhos
 B9 C#9 F# Ebm
 Não me deixei mais, chorando aqui sozinho, Amor...
 B9 C#9 F# Ebm
 Não me deixei mais, chorando aqui sozinho, Amor...
 B C#9 F# Ebm B9 C#9 F#
 Não me deixei mais, chorando aqui sozinho, Amor... 


Quer fazer uma correção nesta cifra?







    Comentários (0) Postar um Comentário

    Nenhum comentário encontrado. Seja o primeiro!