Cifra da música: Ve Se Leva a Serio - Luan Santana

Esse cifra de Luan Santana já foi acessado por 1162 pessoas.

5.00 / 5 - 1
Comente

A música Ve Se Leva a Serio fez muito sucesso quando foi gravada por Luan Santana. Quer conhecer a letra dela? Veja a letra de Ve Se Leva a Serio e cante.

Veja também o vídeo da música tocada.


  (intro) D A D G D A

 E |------------------0--|------------------|
 B |--5-5/7--5---3----2--|--5-5/7--5---3----|
 G |------------------2--|---------------7--|
 D |---------------------|------------------|
 A |---------------------|------------------|
 E |---------------------|------------------|

 E |--------------------------------------5-|-----------------|
 B |5-5/7--5---3-5----3h5-5/7--5--3--5/7----|--7--5--3--5/7---|
 G |----------------------------------------|-----------------|
 D |----------------------------------------|-----------------|
 A |----------------------------------------|-----------------|
 E |----------------------------------------|-----------------|

     D
 O amor não tem limite,não tem hora e nem lugar
                                   A
 quando sinto sua falta ligo pra te escutar

 te proponho amor eterno,jogo mesmo pra ganhar
                                      D
 se esta falando sério,corra logo e vem me amar

           A D
 você precisa saber,o quanto eu te quero
               A D D4 D
 eu liguei pra te dizer,vê se leva a sério
           G D
 nossa historia de amor,não é brincadeira não
         G A
 se entregue de uma vez,vem viver essa emoção

       G D
 ref: Deixa eu te amar,te fazer feliz
             A D
 se ainda me quer saiba que eu sempre te quiz
        G D
 vem dizer sim, pra essa paixão
          A D
 falando sério agora está meu coração 


Quer fazer uma correção nesta cifra?







    Comentários (0) Postar um Comentário

    Nenhum comentário encontrado. Seja o primeiro!