Cifra da música: Minha Boca Você Não Beija Mais - Luan Santana

Esse cifra de Luan Santana já foi acessado por 1360 pessoas.

2.00 / 5 - 2
Comente

A música Minha Boca Você Não Beija Mais fez muito sucesso quando foi gravada por Luan Santana. Quer conhecer as demais músicas? Conheça as letras das músicas gravadas por Luan Santana e aproveite.

Veja também o vídeo da música tocada.


 (intro 2x) D (riff)

 (riff)
 E|-2-2----------------|
 B|-3-3----------------|
 G|-2-2----------------|
 D|-----------0-----0--| 2X
 A|----------0-----0---|
 E|-------0/2---0/2----|

    D A Bm G
 Ta aí, se o que você queria
                D A
 Era me ver chorar
                 Bm
 Então pode sorrir
               D A
 Então pode zombar
        Bm G
 Desse tolo, desse bobo
       A D
 Que você não soube amar

 Em G
    Cheguei no meu limite agora foi demais

 Você extrapolou
          A A4
 Você passou da conta

 E|-----------------------------------------------------|
 B|-----------------------------10h12-12b-12-10--10/12--|
 G|-------------------9h11-9h11------------------11/12--|
 D|------------7h9/11-----------------------------------|
 A|--------7h9------------------------------------------|
 E|--5h7/9----------------------------------------------|

 Em G
    Então vou ser bem prático pra te falar
                                       A D
 Com quem mais te amou você não mais apronta

             A
 Não bata na porta
                 Bm
 Pra mim não tem volta
      G A D          G|------6h7p6-------6/7--|
 Já chegaaa!  D|--7h9-------9p7p5------|
                 A
 Se você foi incapaz
             Bm G
 Agora tanto faz
        A D
 Minha boca você não beija mais

 (refrão)
         A Bm
 Nunca maaaais, ooonãão
 G A D
 Nunca maaaais,
         A Bm
 Nunca maaaais, ooouôôô
  G A D
 Nunca maaaais,

    (solo) ( D A Bm G A D A C G C A )
 E|---------   -----------------------------------------
 B|--9^-9-7-   ----------------------------------5/7-5~-
 G|--9^-9-7- 3x------7---------------5/7-7~-------------
 D|---------   --7/9---7/9--7~---4/5---------4/5--------
 A|---------   -----------------------------------------
 E|---------   -----------------------------------------

 E|---------   -----------------------------------------
 B|--9^-9-7-   --------------------------------------~--
 G|--9^-9-7- 3x------7----------7^-7-5----7^-7-5--------
 D|---------   --7/9---7/9--7~---------5~--------5/7----
 A|---------   -----------------------------------------
 E|---------   -----------------------------------------

    D A Bm G
 Ta aí, se o que você queria
                D A
 Era me ver chorar
                 Bm
 Então pode sorrir
               D A
 Então pode zombar
        Bm G
 Desse tolo, desse bobo
       A D
 Que você não soube amar

 Em G
    Cheguei no meu limite agora foi demais

 Você extrapolou
          A A4
 Você passou da conta

 E|-----------------------------------------------------|
 B|-----------------------------10h12-12b-12-10--10/12--|
 G|-------------------9h11-9h11------------------11/12--|
 D|------------7h9/11-----------------------------------|
 A|--------7h9------------------------------------------|
 E|--5h7/9----------------------------------------------|

 Em G
    Então vou ser bem prático pra te falar
                                       A D
 Com quem mais te amou você não mais apronta

              A
 Não bata na porta
                 Bm
 Pra mim não tem volta
      G A D          G|------6h7p6-------6/7--|
 Já chegaaa!  D|--7h9-------9p7p5------|
                 A
 Se você foi incapaz
             Bm G
 Agora tanto faz
        A D
 Minha boca você não beija mais (2x)

 (refrão)

  D A
 É, às vezes depois de um grande amor
                            Bm
 agente acaba se perdendo,
                           G
 mas agora chega, nunca mais você me tira do sério

 D A Bm
  Nunca maaaais, ooonãão
  G A D D (intro)
  Nunca maaaais, 


Quer fazer uma correção nesta cifra?







    Comentários (0) Postar um Comentário

    Nenhum comentário encontrado. Seja o primeiro!