Cifra da música: Chocolate - Luan Santana

Esse cifra de Luan Santana já foi acessado por 1781 pessoas.

1.00 / 5 - 1
Comente

A música Chocolate fez muito sucesso quando foi gravada por Luan Santana. Quer conhecer a letra dela? Veja a letra de Chocolate e cante.

Veja também o vídeo da música tocada.


(refrão)
 A E D A
 De chocolate nosso amor é feito então não tem jeito gruda em mim.
                   E D A
 Isso não é só confetti me abraça enlouquece meu vicio sem fim.

 (base solo) A E D A A E D A D A

 (solo)
 E|--------------------------------------------------9-7-12-12-12-10-9-10-10-10-9-7-7-5-5-|
 B|---------------------------------------------------------------------------------------|
 G|-6-6-6-6--7-9-9/11-9------------------------------9-7----------------------------------|
 D|--------------------9-11/12-12-12-11-9-11/12-11----------------------------------------|
 A|---------------------------------------------------------------------------------------|
 E|---------------------------------------------------------------------------------------|

 (parte 1)

 A E F#m
 Alo doçura isso é mais que uma serenata de amor
     D A
 Com você tenho a sensação  que o nosso lance.
        E
 È pra vida inteira.

        A E
 Seu olhar é meu sonho de valsa
                 F#m
 É o doce que eu sempre quis
          D E
 Meu prestigio é estar com você
                 A
 E pedir sempre bis.

                  E D
 Você é mais preciosa e bem mais brilhante
                  A
 Que um diamante negro
                     E
 Penso em você todo tempo
              D A
 Nesse seu talento de me fazer feliz.

 A E D A
 De chocolate nosso amor é feito então não tem jeito gruda em mim.
                   E D A
 Isso não é só confete me abraça enlouquece meu vicio sem fim.

 (base solo) A E D A A E D A D A

 (solo inicial)
 E|--------------------------------------------------9-7-12--12-12-10-9-10--10-10-9-7-7-5-5-|
 B|-----------------------------------------------------------------------------------------|
 G|-6-6-6-6--7-9-9/11-9-------------------------------9-7-----------------------------------|
 D|---------------------9-11/12-12-12-11-9-11/12-11------------------------------------------|
 A|-----------------------------------------------------------------------------------------|
 E|-----------------------------------------------------------------------------------------|

 (repete primeira parte) 
Acordes: - acordes para violão


Quer fazer uma correção nesta cifra?







    Comentários (0) Postar um Comentário

    Nenhum comentário encontrado. Seja o primeiro!