Cifra da música: Chega de Sofrer - Luan Santana

Esse cifra de Luan Santana já foi acessado por 1085 pessoas.

1.00 / 5 - 1
Comente

A música Chega de Sofrer fez muito sucesso quando foi gravada por Luan Santana. Quer conhecer as demais músicas? Conheça as letras das músicas gravadas por Luan Santana e aproveite.

Veja também o vídeo da música tocada.


  (intro) G D Am C

 (parte 1)

 E|-----------------7-5-------
 B|---------2-3--6------------
 G|-----2-3-------------------
 D|-2-3-----------------------
 A|---------------------------
 E|---------------------------


 (parte 2)

 E|-----------------7--5-7-9-9-9-9------------
 B|---------2-3--6----------------------------
 G|-----2-3-----------------------------------
 D|-2-3---------------------------------------
 A|-------------------------------------------
 E|-------------------------------------------

 G D Em
 Você só sabe me esnobar,
              C G
 mais fica o tempo todo querendo me encontrar

      D Em
 você só sabe me enrolar,
              C G
 mais fica com ciúmes se alguém me paquerar
        D Em
 se te pego por aí
                 C G
 arrastando sua asa querendo se divertir
       D Em
 fico grilado e sem noção
         C Am
 se a nossa brincadeira acabo virando paixão
 C G
 To viciado em você
                                D
 eu já fiz de tudo pra tenta te esquecer
                                   Am
 mais quando eu te vejo bate forte o coração
 C D
 acho que agente tem que parar de bobeira e se entregar de vez pr'essa paixão

 (refrão)
 G
 sofro sem querer,
 D
 só você tem o poder,
         Am C G
 só pra você entrego o meu coração

 G
 chega de sofrer
 D
 é só você querer
       Am C G
 você não ve que eu estou afim

 G
 sofro sem querer,
 D
 só você tem o poder,
           Am C G
 só pra você entrego o meu coração

 G
 chega de sofrer
 D
 é só você querer
        Am C G
 você não ve que eu estou em suas mãos 


Quer fazer uma correção nesta cifra?







    Comentários (0) Postar um Comentário

    Nenhum comentário encontrado. Seja o primeiro!