Cifra da música: Aqui É o Seu Lugar (Pra Você) - Luan Santana

Esse cifra de Luan Santana já foi acessado por 1140 pessoas.

5.00 / 5 - 1
Comente

A música Aqui É o Seu Lugar (Pra Você) fez muito sucesso quando foi gravada por Luan Santana. Quer conhecer as demais músicas? Conheça as letras das músicas gravadas por Luan Santana e aproveite.

Veja também o vídeo da música tocada.


 (intro) B E B F# B E B F# B F#

 (solo)
 E|------------------------------------|
 B|-----4-3\4----4-4-4-7-7-7-7-5-4-----|
 G|---4---3\4---------------------4----|
 D|------------------------------------|
 A|------------------------------------|
 E|------------------------------------|

 E|------------------------------------|
 B|-----4-3\4----4-4-4-7-7-7-7-5-4-----|
 G|---4---3\4------------------------6-|
 D|------------------------------------|
 A|------------------------------------|
 E|------------------------------------|

 E|------------------------------------|
 B|-----4-3\4----4-4-4-7-7-7-7-5-4-----|
 G|---4---3\4----------------------4---|
 D|------------------------------------|
 A|------------------------------------|
 E|------------------------------------|

 E|------------------------------------|
 B|------5-5-5-5-7-5-4---4-4-4---------|
 G|-4-4-4----------------------6-4-6---|
 D|------------------------------------|
 A|------------------------------------|
 E|------------------------------------|

 E|-----------------------5-4-7--------|
 B|-----------------5-7-9--------------|
 G|-6-6-6-4-3--4-6-8-------------------|
 D|------------------------------------|
 A|------------------------------------|
 E|------------------------------------|

 G#m D#m
   Não dá pra entender esse  meu coração
 G#m D#m
   mudou de amizade pra louca paixão
 C#m D#m
   então foi dessa forma que eu percebi
   E F# G° G#m
   não quero te assustar ou me iludir (não dá mais)
   G#m D#m G#m
   não dá pra enganar ou querer fugir (não dá mais)
   G#m D#m
   Se esse sentimento vai crescendo em mim
   E D#m
   Mais tenho que encarar essa decisão
   E F#
   De me confessar e abrir meu coração

 (refrão)
         B E
 É pra você que eu mando flores todas as manhãs viu?
      B F#
 É você que faz meu coração bater a mais de mil
         B E
 Já não sei o que mais eu faço pra te conquistar
                                    B
 Se liga vem depressa aqui é o seu lugar
            F# B F#
  nesse coração que so quer te amar (2x)

         G#m
 (não dá mais)
 G#m D#m G#m
 não dá pra enganar ou querer fugir (não dá mais)
 G#m D#m
 Se esse sentimento vai crescendo em mim
 E D#m
 Mais tenho que encarar essa decisão
 E F#
 De me confessar e abrir meu coração

 (refrão)
         B E
 É pra você que eu mando flores todas as manhãs viu?
      B F#
 É você que faz meu coração bater a mais de mil
         B E
 Já não sei o que mais eu faço pra te conquistar
                                    B
 Se liga vem depressa aqui é o seu lugar
            F# B F#
  nesse coração que so quer te amar (2x)

 (solo)

 (refrão 2x) 


Quer fazer uma correção nesta cifra?







    Comentários (0) Postar um Comentário

    Nenhum comentário encontrado. Seja o primeiro!