Cifra da música: Tangerine - Led Zeppelin

Esse cifra de Led Zeppelin já foi acessado por 1152 pessoas.

Comente

A música Tangerine fez muito sucesso quando foi gravada por Led Zeppelin. Quer conhecer a letra dela? Veja a letra de Tangerine e cante.

Veja também o vídeo da música tocada.


Intro 
Am     G   D
e-0-0-0|3-3|2-2-2-2|
B-1-3-1|3-3|3-3-3-3|
G-2-2-2|0-0|2-2-2-2|
D-2-2-2|0-0|0-0-0-0|
A-0-0-0|2-2|X-X-X-X|
E-X-X-X|3-3|X-X-X-X|
Am       G   D     C         G/B  Am  G
e-0-0-0|3-3|2-2-2|0-0-----0|----3|--0|3|2-2-2-3-2-0|
B-1-3-1|3-3|3-3-3|1-1----1-|---3-|--1|3|3-3-3-3-3-3|
G-2-2-2|0-0|2-2-2|0-0---0--|--0--|--2|0|2-2-2-2-2-2|
D-2-2-2|0-0|0-0-0|2-2--2---|-0---|--2|0|0-0-0-0-0-0|
A-0-0-0|2-2|X-X-X|3-3-3----|2----|0-0|2|X-X-X-X-X-X|
E-X-X-X|3-3|X-X-X|X-X------|-----|--X|3|X-X-X-X-X-X|

e-2|
B-3|
G-2|
D-0|
A-X|
E-X|
FIM DA INTRO
------------------------------------------

INICIO DA VOZ

Am     G   D
e-0-0-0|3-3|2-2-2-2|
B-1-3-1|3-3|3-3-3-3|
G-2-2-2|0-0|2-2-2-2|
D-2-2-2|0-0|0-0-0-0|
A-0-0-0|2-2|X-X-X-X|
E-X-X-X|3-3|X-X-X-X|
Am       G   D     C         G/B  Am  G
e-0-0-0|3-3|2-2-2|0-0-----0|----3|--0|3|2-2-2-3-2-0|
B-1-3-1|3-3|3-3-3|1-1----1-|---3-|--1|3|3-3-3-3-3-3|
G-2-2-2|0-0|2-2-2|0-0---0--|--0--|--2|0|2-2-2-2-2-2|
D-2-2-2|0-0|0-0-0|2-2--2---|-0---|--2|0|0-0-0-0-0-0|
A-0-0-0|2-2|X-X-X|3-3-3----|2----|0-0|2|X-X-X-X-X-X|
E-X-X-X|3-3|X-X-X|X-X------|-----|--X|3|X-X-X-X-X-X|
   Am D G   C   G   C   G
e-2|0|2|(3)|(0)|(3)|(0)|(3)|
B-3|1|3|(3)|(1)|(3)|(1)|(3)|
G-2|2|2|(0)|(0)|(0)|(0)|(0)|
D-0|2|0|(0)|(2)|(0)|(2)|(0)|
A-X|0|X|(2)|(3)|(2)|(3)|(2)|
E-X|X|X|(3)|(X)|(3)|(X)|(3)|

Am      G   D
e-0-0-0|3-3|2-2-2-2|
B-1-3-1|3-3|3-3-3-3|
G-2-2-2|0-0|2-2-2-2|
D-2-2-2|0-0|0-0-0-0|
A-0-0-0|2-2|X-X-X-X|
E-X-X-X|3-3|X-X-X-X|
Am       G   D     C         G/B  Am  G
e-0-0-0|3-3|2-2-2|0-0-----0|----3|--0|3|2-2-2-3-2-0|
B-1-3-1|3-3|3-3-3|1-1----1-|---3-|--1|3|3-3-3-3-3-3|
G-2-2-2|0-0|2-2-2|0-0---0--|--0--|--2|0|2-2-2-2-2-2|
D-2-2-2|0-0|0-0-0|2-2--2---|-0---|--2|0|0-0-0-0-0-0|
A-0-0-0|2-2|X-X-X|3-3-3----|2----|0-0|2|X-X-X-X-X-X|
E-X-X-X|3-3|X-X-X|X-X------|-----|--X|3|X-X-X-X-X-X|

e-2|
B-3|
G-2|
D-0|
A-X|

e-0-0-0|
B-1-3-1|
G-2-2-2|
D-2-2-2|
A-0-0-0|
E-X-X-X|

And I Do...
Solo

Apos o solo
  




  C D G   C   G   C   G
e-0|2|(3)|(0)|(3)|(0)|(3)|
B-1|3|(3)|(1)|(3)|(1)|(3)|
G-0|2|(0)|(0)|(0)|(0)|(0)|
D-2|0|(0)|(2)|(0)|(2)|(0)|
A-3|X|(2)|(3)|(2)|(2)|(2)|
E-X|X|(3)|(X)|(3)|(X)|(3)|         
      
SOLO
e--------------------------------------------------
B-8~~~~11~~~13-15-13-11p10-13-10~11p10-13-10~~11p10
G--------------------------------------------------

e------15-15-13-15-15-15-13-17-17-15-17-17-17b18---
B-11-13--------------------------------------------
G--------------------------------------------------

Legenda
b=bend
~=vibrato
()=reptir
p=pulff-off
X=abafado





Quer fazer uma correção nesta cifra?







    Comentários (0) Postar um Comentário

    Nenhum comentário encontrado. Seja o primeiro!