Cifra da música: Over the hills and far away - Led Zeppelin

Esse cifra de Led Zeppelin já foi acessado por 1159 pessoas.

Comente

A música Over the hills and far away fez muito sucesso quando foi gravada por Led Zeppelin. Quer conhecer a letra dela? Veja a letra de Over the hills and far away e cante.

Veja também o vídeo da música tocada.


----------------3-------------------------2-
----------------3-------------------------3-
--0^2^0-----0---0-----0^2^0---0-4^2^0-----2-
--------4^0-----0-----------4---------0---0-
----------------2---------------------------
----------------3---------------------------

play twice, then...
 
------------------3------------------------2---------------0-----0---0------
------------------3------------------------3---------------3--3--3--/5------
------------------0---0^2^0---0-4^2^0------2--0^2^0--------0--0--0---0------
------0---0-2-0---2---------4----------0---0--------4^0----2--0--3--/5------
--0-2---2---------2-------------------------------------3--3--2--1--/3------
------------------3---------------------------------------------------------

go back to start again, this time the 12-string kicks in.  Third time around,
the vocals start.
 

----3-------------------------
----3-------------3-5-3-5-/7--
----0------0--2-4-------5-/7--
----0-------------------0--0--
----2-------------------------
----3-------------------------
 
 '..maybe, more than enough...'
 

--------------0-----+----------------2--0--+--9----7------------------------
--------------3-----|----------------3--3--|--10---8------------------------
--0^2^0-------0--0--|----------------2--2--|--9----7------------------------
--------4^0---2--0--|---------0-2-0--0--0--|--0----0------------------------
------------3-3--2--|-----0-2--------------|--------------------------------
--------------------+-3-3------------------+--------------------------------
		      
'you got... so much'|       repeat x 3     | strum in time, repeat x 4
					      

Here's what I have to add:

After the soft strumming comes the loud part:
E-|--3---2-----2---0----|
B-|--3---3-----3---2----|
G-|--0---2-----2---2----|
D-|--0---0-----0---2----|
A-|--2---0-----0---0----|
E-|--3------------------|

E-|-3-3-3-3-3-------------------3-3-3-3-3---3---2-----2---0--|
B-|-3-3-3-3-3-------2---2-2-2-2-3-3-3-3-3---3---3-----3---2--|
G-|-0-0-0-0-0-x-x-x-2---2-2-2-2-0-0-0-0-0---0---2-----2---2--|
D-|-0-0-0-0-0-x-x-x-2---2-2-2-2-0-0-0-0-0---0---0-----0---2--|
A-|-2-2-2-2-2-x-x-x-0---0-0-0-0-2-2-2-2-2---2---0-----0---0--|
E-|-3-3-3-3-3-------------------3-3-3-3-3---3----------------|

E-|-3-3-3-3-3-------------------3-3-3-3-3--------------------|
B-|-3-3-3-3-3-------2---2-2-2-2-3-3-3-3-3--------2--2--------|
G-|-0-0-0-0-0-x-x-x-2---2-2-2-2-0-0-0-0-0---x-x--2--2--------|
D-|-0-0-0-0-0-x-x-x-2---2-2-2-2-0-0-0-0-0---x-x--2--2--------|
A-|-2-2-2-2-2-x-x-x-0---0-0-0-0-2-2-2-2-2---x-x--0--0--------|
E-|-3-3-3-3-3-------------------3-3-3-3-3--------------------|

E-|------------------------------------------------------|
B-|------------------------------------------------------|
G-|------------------------------------------------------|  Play
D-|---0---0-0---0-2b------------0---0-0---0--------------| 2 times
A-|-2---2-----2--------0--0---2---2-----2---2b---0-0-----|
E-|------------------------------------------------------|


After Playing this a few times, the rhythm changes a little
before going into the solo:
E-|--3--3-3---2--2-2---2--0--0--|
B-|--3--3-3---3--3-3---3--2--0--|
G-|--0--0-0---2--2-2---2--2--1--|
D-|--0--0-0---0--0-0---0--2--2--|
A-|--2--2-2---0--0-0---0--0--2--|
E-|--3--3-3------------------0--|
		       
E-|-------10-------------------------------------------0------|
B-|-10b12----10b12rb10-------10------------------------9------|
G-|---------------------9b11----9b11rb9------9---7---11b13----|
D-|--------------------------------------7h9---9--------------|
A-|-----------------------------------------------------------|
E-|-----------------------------------------------------------|
									       
E-|-------10------------------------------------------0-------|
B-|-10b12----10b12rb10-------10----------------------7b9------|
G-|---------------------9b11----9b11rb9------9---7------------|
D-|--------------------------------------7h9---9--------------|
A-|-----------------------------------------------------------|
E-|-----------------------------------------------------------|

E-|---------------------------------------------------|
B-|---------------------------------------------------|
G-|-------------9--9----------------------------------|
D-|--9bb11vvvvv------9b11---9b11---9b11rb9--7bbbvvv---|
A-|---------------------------------------------------|
E-|---------------------------------------------------|

E-|----------------------------------------------------------|
B-|----------------------------------------------------------|
G-|----------------------------------------------------------|
D-|-------------------7-7------------------------------------|
A-|--7-9--7-9--7-9--7----7-9--7h9p7---7----------------------|
E-|---------------------------------9---9-7-9-7s5--7p5sssss0-|

E-|---------------------------------------------|
B-|---------------------------------------------|
G-|---------------------------------------------|
D-|---------------------------------------------|
A-|---------------------------------------------|
E-|-0-0-2vvvvv--ssssss7b9vvvvv--0h2p0h2vvvvvv---|

E-|-----------17----17---19b21vv-----17---------------|
B-|--------19----19---19----------------19p17-19p17---|
G-|--19b21--------------------------------------------|
D-|---------------------------------------------------|
A-|---------------------------------------------------|
E-|---------------------------------------------------|

    
E-|---------------17------------------------------------------------|
B-|---17-17-17b19-----17-17-17b19rb17p14-17p14s12-14p12s10-12vv-----|
G-|-----------------------------------------------------------------|
D-|-----------------------------------------------------------------|
A-|-----------------------------------------------------------------|
E-|-----------------------------------------------------------------|

E-|-------------------------------------------|
B-|-10-10-10----------10-10-------------------|
G-|----------11p9-11--------11p9-11--11s9vv---|
D-|-------------------------------------------|
A-|-------------------------------------------|
E-|-------------------------------------------|

E-|-----------------------------4-------------------16--18ssss--|
B-|--------------------------5------------------17--------------|
G-|--------------1--3-3-3-6-------15-15-15--18------------------|
D-|-----------2-------------------------------------------------|
A-|-1-1-1-4-----------------------------------------------------|
E-|-------------------------------------------------------------|

Then you go back and play more of the stuff from the main part of the
song until you reach the very end

----------------------3----------------------2------------------------------
----------------------3----------------------3------------------------------
----------------------0----------------------2------------------------------
-----------0-2-0------0------------0-2-0-----0------------------------------
-------0-2-------2-0--2--------0-2-------2-0--------------------------------
--3--3----------------3---3--3----------------------------------------------
 
  At the end they repeat this and fade it out to some very echo-ish stuff 
  (a simplified version of the verse, with the individual notes played up 
  an octave)


Quer fazer uma correção nesta cifra?







    Comentários (0) Postar um Comentário

    Nenhum comentário encontrado. Seja o primeiro!