Cifra da música: Dazed And Confused - Led Zeppelin

Esse cifra de Led Zeppelin já foi acessado por 968 pessoas.

Comente

A música Dazed And Confused fez muito sucesso quando foi gravada por Led Zeppelin. Quer conhecer a letra dela? Veja a letra de Dazed And Confused e cante.

Veja também o vídeo da música tocada.


The intro should be done using NATURAL HARMONICS like this..

|----12-----5----------------12------5--------------
|-12------5---------------12-------5----------------
|-------------12------------------------5-----------
|---------------------------------------------------
|---------------------------------------------------
|---------------------------------------------------
	       ~~~~~~                   ~~~~~~

~Use vibrato
                                    
E-|-------------------------------------------------
B-|-------------------------------------------------
G-|-------------------------------------------------
D-|------------------------------9-9-9----7-9-------
A-|-----10-9-8-7-----------------9-9-9-7-9----7-9---
E-|-0-0---------0-10-9-8-7-------7-7-7--------------

Primeira parte do solo                                                    
                                                   
E-|-------------------------------------------------
B-|-------------------------------------------------
G-|-------------------------------------------------
D-|-------------------------------------------------
A-|-------------------------------------------------
E-|-3---3---3-----7/10----7/10----------------

                                                                       
    
                                                       
E-|---------------------------------------------------------------------------
B-|----------------------------------------------15-14-12-10-8-7-5-8-7-3-2----
G-|-------------12-14-12----------------12-14-12---------------------------3/-
D-|-------12-14----------14-------12-14---------------------------------------
A-|-12-14-------------------12-14---------------------------------------------
E-|---------------------------------------------------------------------------



                                                                            
    Acordes após solo
                                                     
E-|------------------------------|
B-|------------------------------|
G-|-9-9-9-9-7-----9-9-9-9-12-----|
D-|-9-9-9-9-7-7-7-9-9-9-9-12-----|
A-|-7-7-7-7-5-7-7-7-7-7-7-10-----|
E-|-----------5-5----------------|


                                                                             
   Coda                                                    Repete
        
E-|------------------------------------------------------------------------|
B-|-----------------------------------------------------------------7p6p5--|
G-|--------------------------------------------------------0-0-0-0---------|
D-|-5-5-5-3-7-7-7-5-9-9-9-7-11-11-11-9-14-14-14-14-14-12-------------------|
A-|------------------------------------------------------------------------|
E-|-3-3-3-1-5-5-5-3-7-7-7-5--9--9--9-7-12-12-12-12-12-10-------------------|


                                                                             
                                                      
E-|---------------------------------|
B-|---------------------------------|
G-|-7-7-7---------------7-7-7-9-----|
D-|-7-7-7---------------7-7-7-9-----|
A-|-5-5-5---------------5-5-5-7-----|
E-|---------------------------0-----|
                                 



Quer fazer uma correção nesta cifra?







    Comentários (0) Postar um Comentário

    Nenhum comentário encontrado. Seja o primeiro!