Cifra da música: Rock 'n' roll - Led Zeppelin

Esse cifra de Led Zeppelin já foi acessado por 1282 pessoas.

3.00 / 5 - 1
Comente

A música Rock 'n' roll fez muito sucesso quando foi gravada por Led Zeppelin. Quer conhecer as demais músicas? Conheça as letras das músicas gravadas por Led Zeppelin e aproveite.

Veja também o vídeo da música tocada.


 intro:

 riff 1
e|--------------------------|-------------|
b|--------------------------|-------------|
g|--------------------------|-------------|
d|--2--2-----2-5-4-2--------|-4-2-2-2-4-2-|
a|--0--0-3b4---------3b4--0-|-0-0-0-0-0-0-|
e|--------------------------|-------------|

 riff 2
e|--------------------------|-------------|
b|--------------------------|-------------|
g|--2--2-----2-5-4-2--------|-4-2-2-2-4-2-|
d|--0--0-3b4---------3b4--0-|-0-0-0-0-0-0-|
a|--------------------------|-------------|
e|--------------------------|-------------|

 riff 3
e|--------------------------|-------------|
b|--------------------------|-------------|
g|--------------------------|-------------|
d|--------------------------|-------------|
a|--2--2-----2-5-4-2--------|-4-2-2-2-4-2-|
e|--0--0--3b4-------------0-|-0-0-0-0-0-0-|

 riff A verso
e|-----------|     |-----------------|
b|-----------|     |-----------------| 
g|-----2-----|     |-----2----2------|
d|-----2-----|     |-----2----2------| 
a|-----0-----|     |-----0----0------| 
e|--3--------| 3x  |---3----3---3p0--|

 riff B verso
e|-----------|     |-----------------|
b|-----3-----|     |-----3----3------|
g|-----2-----|     |-----2----2------|
d|-----0-----|     |-----0----0------| 
a|--3--------|     |---3----3---3p0--|
e|-----------| 3x  |-----------------|
 
  verso E 
e|--------------------------------------------|
b|--------------------------------------------|
g|--------------------------------------------|
d|-9-9-11-9-9-9-11-9-9-9-11-9-9-9-11-9---7----|
a|-7-7-7--7-7-7-7--7-7-7-7--7-7-7-7--7---5----|
e|--------------------------------------------|

 solo:
e|----------------------|
b|--5--5----------------|
g|--5--5----------------|
d|-------7--5-7--5--7~~-|
a|----------------------|
e|----------------------| 5x

e|-----------|      e|--------|
b|-----------|      b|--------|
g|-----------|      g|--------|
d|-----------|      d|--------|
a|----0h4p0--|      a|----4p0-|
e|--3--------| 4x   e|--3-----| 4x

e|---------------------------------------------|
b|---------------------------------------------|
g|---------------------------------------------|
d|-----5p2p0-----------------2-----------2p0-0-|
a|--0--------4p3-------2-3-4---4-3-2-3-4-------|
e|---------------3-3-3-------------------------|

e|--------------------------------0---5--------|
b|---------------------------3b5----5----------|
g|---4p2p0--5p3p0--6p4p0--0-------------7b9----|
d|---------------------------------------------|
a|---------------------------------------------|
e|---------------------------------------------|
                                                    
e|--------------------------5---------5-----5--|
b|--------------------------5---------5-----5--|
g|--(7)p5--7-5-------5--7b9---7b9-7b9---7b9----|
d|-------------7-5-7---------------------------|
a|---------------------------------------------|
e|---------------------------------------------|

e|--4p3p2p0-5p4p3p0-6p5p4p0-7p6p5p0-8p7p6p0----|
b|-------------------------------------------8-|
g|---------------------------------------------|
d|---------------------------------------------|
a|---------------------------------------------|
e|---------------------------------------------|


e|--5---10b12--10b12--5---7b9--7-5----7b9--7-5-|
b|----------------------7----------7-----------|
g|---------------------------------------------|
d|---------------------------------------------|
a|---------------------------------------------|
e|---------------------------------------------|

e|--5---7b9---7-5~~--7-----5-7--5-----12-------|
b|----7----------------5h7---------10----12b14-|
d|---------------------------------------------|
g|---------------------------------------------|
a|---------------------------------------------|
e|---------------------------------------------|

e|--------12------12~-12~--12~-----------------|
b|--10~~--15b17---15~-15~--15b17~~----15-13----|
g|---------------------------------------------|
d|---------------------------------------------|
a|---------------------------------------------|
e|---------------------------------------------|

e|--------12---------- |   |---------|
b|--15b17----13--------|   |-5h8p5---|
g|--------------14///--|   |-------7-|
d|---------------------|   |---------|
a|---------------------|   |---------|
e|---------------------|   |---------| 4x

e|--8b10--5-------------|  |---------|
b|----------5----5------|  |-5h8p5---|
g|------------7-----7//-|  |-------7-|
d|----------------------|  |---------|
a|----------------------|  |---------|
e|----------------------|  |---------| 8x

e|---------------------------------------------|
b|-----------------------7~~~------------------|
g|--7---5--7--5---------------5--7--5----------|
d|--------------7--7---7--------------7--7----7|
a|---------------------------------------------|
e|---------------------------------------------|

 o final da musica e assim: 
e|---------------------------------------------|
b|--5------------------------------------------|
g|--x------------------------------------------|
d|--5--------------------5h7p5--5h7---5--------|
a|--4----3h5h3-----3-5/7------------0-------5--|
e|-----5-------3h5-----------------------------|

riff 1 2x
riff 2 1x
riff 1 1x
riff 3 1x
riff 1 1x
riff A 2x 
riff B 1x
riff A 1x
riff E 1x
riff 1 2x
riff A 2x
riff B 1x
riff A 1x
riff E 1x
riff 1 2x 
solo  





Quer fazer uma correção nesta cifra?







    Comentários (0) Postar um Comentário

    Nenhum comentário encontrado. Seja o primeiro!