Cifra da música: Terra de Gigantes - Engenheiros do Hawaii

Esse cifra de Engenheiros do Hawaii já foi acessado por 2511 pessoas.

Comente

A música Terra de Gigantes fez muito sucesso quando foi gravada por Engenheiros do Hawaii. Quer conhecer a letra dela? Veja a letra de Terra de Gigantes e cante.

Veja também o vídeo da música tocada.


Introdução: E B/D# C#m G#/C A E/G# A B

2x
e|-----4--------4--------4--------4--------4-------------------
B|--5-----5--------5--------5--------5--------5--5-------------
G|-----------4--------4--------4--------4--------4-------------
D|--2--------------------------------------------2-------------
A|-------------------------------------------------------------
E|-------------------------------------------------------------


e|-------------------------------------------------------------
B|------12--14-------------------------------------------------
G|--13----------13------13--11s9------------------------9--8---
D|------------------14------------11--9----------9--11---------
A|---------------------------------------10--12----------------
E|-------------------------------------------------------------
            (   *   )        (   £   )
e|----------12b14b12--11-------------------------------12--11--
B|------12----------------14-12r14r12----------12--14----------
G|--13---------------------------------13--14------------------
D|-------------------------------------------------------------
A|-------------------------------------------------------------
E|-------------------------------------------------------------

(*)Tocar a casa 12ª já fazendo um bend p/ cima de modo que ela 
torne-se um F# (14ª casa) e descer de volta ao seu valor natural.
(£)Tocar na casa 12ª, dar um taping rápido na 14ª e deixar o som da 12ª fluir.




   E      Abm/Eb                       C#m     Ab/C
  Hei, mãe,     eu tenho uma guitarra elétrica
  A                            E/Ab                  F#m
  Durante muito tempo, isso foi tudo o que eu queria ter
 B7     E      Abm/Eb               C#m          Ab/C
  Mas, hei, mãe,     alguma coisa ficou pra trás
  A               E/Ab                    F#m B7
  Antigamente eu sabia exatamente o que fazer
   E       Abm/Eb                   C#m          Ab/C
  Hei, mãe,      tenho uns amigos tocando comigo
  A                 E/Ab            F#m          B7
  Eles são legais, além do mais não querem nem saber
   E            Abm/Eb C#m             Ab/C
  Mas, agora, lá fora, todo mundo é uma ilha
     A                E/Ab                  F#m B7
  Há milhas e milhas e milhas de qualquer lugar

 F#                  E
   Nessa terra de gigantes
 F#                             E
   Eu sei, já ouvimos tudo isso antes
 F#                   A              B7               E     C# E C#
   A juventude é uma banda numa propaganda de refrigerantes

  E          Abm/Eb         C#m             Ab/C
  As revistas, as revoltas, as conquistas da juventude
   A            E/Ab        F#m           B7
  São heranças, são motivos pras mudanças de atitude
      E                   Abm/Eb  C#m    Ab/C
  Os discos, as danças, os riscos da juventude
    A             E/Ab           F#m               B7
  A cara limpa, a roupa suja esperando que o tempo mude

 F#                  E
   Nessa terra de gigantes
 F#                      E
   Tudo isso já foi dito antes
 F#                   A              B7               E     C# E C#
   A juventude é uma banda numa propaganda de refrigerantes

   E      Abm/Eb                    C#m  Ab/C
  Hei, mãe,     já não esquento a cabeça
     A                        E/Ab                 F#m B7
  Durante muito tempo isso foi só o que eu podia fazer
       E           Abm/Eb                     C#m    Ab/C
  Mas hei, hei, mãe      por mais que a gente cresça
      A                  E/Ab                F#m B7
  Há sempre coisas que a gente não pode entender
      E        Abm/Eb                      C#m          Ab/C
  Por isso, mãe,     só me acorda quando o sol tiver se posto
  A                    E/Ab            F#m      B7
  Eu não quero ver meu rosto antes de anoitecer
   E            Abm/Eb   C#m             Ab/C
  Pois agora, lá fora, o mundo todo é uma ilha
     A                E/Ab    F#m B7
  Há milhas e milhas e milhas...

 F#                  E
   Nessa terra de gigantes
 F#                         E
   Que trocam vidas por diamantes
 F#                   A              B7               E     C# E C# (introd.)2x
   A juventude é uma banda numa propaganda de refrigerantes

 F#                  E
   Nessa terra de gigantes
 F#                         E
   Que trocam vidas por diamantes
 F#                   A              B7               E     C# E C# E
   A juventude é uma banda numa propaganda de refrigerantes




Quer fazer uma correção nesta cifra?







    Comentários (0) Postar um Comentário

    Nenhum comentário encontrado. Seja o primeiro!