Cifra da música: Parabólica - Engenheiros do Hawaii

Esse cifra de Engenheiros do Hawaii já foi acessado por 2184 pessoas.

5.00 / 5 - 1
Comente

A música Parabólica fez muito sucesso quando foi gravada por Engenheiros do Hawaii. Quer conhecer a letra dela? Veja a letra de Parabólica e cante.

Veja também o vídeo da música tocada.


Introdução: G D/F# - G D/F# - G D/F#


G
ela pára
  D/F#  Em   Bm
e fica ali parada
     C        Am 
olha-se para nada
     D/F#
(paraná)
G       D/F#
fica parecida
Em    Bm
(paraguaia)
      F7+      C     Am
pára-raios em dia de sol
      D/F#
para mim
G      D/F#      Em  Bm
prenda minha parabólica
C     G/B       Am D/F#
princesinha parabólica
B7               C
o pecado mora ao lado
A     G D/F# C          G  D/F# Em Bm C Am D/F# 
o paraíso...   paira no ar
B7 C        A      G D/F# C Am D/F#
... pecados no paraíso ...
     Em          Bm
se a TV estiver fora do ar
         Em 
quando passarem
               Bm
os melhores momentos da sua vida
Am             Am7+   
pela janela alguém estará
Am7            D
de olho em você
        Em
(paranóica)
Bm               Em 
prenda minha parabólica
Bm                Am/G Am/G# Am/G Am/G#
princesinha clarabólica
    Am            Bm 
paralelas que se cruzam
C     D        G
em Belém do Pará
              D/F#            Em Bm 
longe, longe, longe (aqui do lado)
     C    Am           D/F#
(paradoxo: nada nos separa)
    G
eu paro
  D/F#   Em    Bm
e fico aqui parado
     F7+      C 
olho-me para longe
      Am           D/F#    G
a distância não separabólica




Tablatura do dedilhado
-====================-


---------2>5-3-----|--0---------------------------------------------------------
-0>1-3-3-------0-3-|----3-1-3-----0>1-0---3-------------------------------------
-0---------------4-|------------0-------2---------------------------------------
-------------------|----------0-------------------------------------------------
-----------------2-|--3-----2-------0-------------------------------------------
-3-----2-----0-----|--------------------2---------------------------------------
 G     D     E   B    C     B       A   D
Ela para e fica ali parada...

---------2>5-3-----|--1-0-------------------------------------------------------
-0>1-3-3-------0-3-|--1-1-----0>1-0---3-----------------------------------------
-----------------4-|--------0-------2-------------------------------------------
-------------------|--3---2-----------------------------------------------------
-----------------2-|----3-------0-----------------------------------------------
-3-----2-----0-----|----------------2-------------------------------------------
 G     D     E   B    F C       A   D
Fica parecida paraguaia...


-----------0--------------------------------------------------------------------
-0-3-------1-3-----0>1-0---3----------------------------------------------------
-0-2-0-4---------0-------2------------------------------------------------------
---------------0----------------------------------------------------------------
-------2-|-3-2-------0----------------------------------------------------------
-3-2-0---|---------------2------------------------------------------------------
 G D E B   C B       A   D
Prenda minha parabolica...


-----------------0---2>3-3-----1-0-0-|------------------------------------------
-0>1-0-0-----0-1---3-------3---1-0-1-|-1-1-1-0-3--------------------------------
-0-----0---0-----------------0-------|-2-2-2-2-2--------------------------------
---------0---------0-----------3-----|------------------------------------------
-2-----2-------3-------------------3-|-0----------------------------------------
-------------------------3-----------|---------2--------------------------------
 B             C   D     G     F   C   A       D
O pecado mora ao lado...


---0---2---0---2---0---0---0-3-2-0-0--------------------------------------------
-0-0-3-3-0-0-3-3-1-1-0-0-1-1-1-3-----3-3-1-1-0----------------------------------
-0---4---0---4---2---0---2------------------------------------------------------
-------------------------------0------------------------------------------------
-----2-------2---0-------0------------------------------------------------------
-0-------0-----------3----------------------------------------------------------
 E   B   E   B   A   G   A     D
Se a TV estiver...

---0---2---0---2-----0-----0-----0-----0-|---------0-0-2-2>3--------------------
-0-0-3-3-0-0-3-3---1-----0-----1-----0---|-1-1-3-3-1-1-3-3----------------------
-0---4---0---4---2-----0-----2-----0-----|-2-2-4-4------------------------------
-----------------------------------------|-------------0------------------------
-----2-------2---0-----------0-----------|-0---2---3----------------------------
-0-------0-------------3-----------3-----|--------------------------------------
 E   B   E   B   A  
Prenda minha parabolica...

---------2>5-3-----|--0---------------------------------------------------------
-0>1-3-3-------0-3-|----3-1-3-----0>1-0---3-------------------------------------
-0---------------4-|------------0-------2---------------------------------------
-------------------|----------0-------------------------------------------------
-----------------2-|--3-----2-------0-------------------------------------------
-3-----2-----0-----|--------------------2---------------------------------------
 G     D     E   B    C     B       A   D
Longe, longe, longe (aqui do lado)...

---------2>5-3-----|--1-0---0-----------------------3---------------------------
-0>1-3-3-------0-3-|--1---3-1-----1-1-0-0-----------3---------------------------
-----------------4-|------------0---------2-2-0-0---0---------------------------
-------------------|--3-------2-------------------4-0---------------------------
-----------------2-|--------3-------0---------------2---------------------------
-3-----2-----0-----|------------------------2-------3---------------------------
 G     D     E   B    F     C       A       D       G
Eu paro e fico aqui parado...






Quer fazer uma correção nesta cifra?







    Comentários (0) Postar um Comentário

    Nenhum comentário encontrado. Seja o primeiro!