Cifra da música: Camuflagem - Engenheiros do Hawaii

Esse cifra de Engenheiros do Hawaii já foi acessado por 1157 pessoas.

Comente

A música Camuflagem fez muito sucesso quando foi gravada por Engenheiros do Hawaii. Quer conhecer a letra dela? Veja a letra de Camuflagem e cante.

Veja também o vídeo da música tocada.


Versão 1
-======-

Intro: Riff da introduçao - base E

E (Riff1)
foto de satélite...visão de raio X
cães farejadores...detectores de metal
currículo escolar... teste de QI
previsões do tempo no telejornal

D                                   E(Riff1 e Riff2) 
não captarão...não...não...não captarão

E (Riff1)
capas de revista, lista de 'dez mais'
grampo telefônico...malha fina
a lei da selva e dos tribunais
leitura de mãos...regressão a outras vidas

D                                    E(Riff 1 e Riff3)
não captarão...não...não...não captarão

       (Riff4 em cima do refrão)
C#m             A    C#m           F#  
   sem soar o alarme...sem fazer alarde
  A                   E             
   vai passar batido...despercebido
 F#                      A
   talvez até já tenha acontecido

E (Riff2)

E (Riff1)
sondas e radares não captarão
revisores ortográficos também não
pesquisa de opinião, câmera escondida
os caras ligados se atrasarão

D                                    E(Riff3)
não captarão...não...não...não captarão

C#m             A    C#m           F# (Riff4) 
   sem soar o alarme...sem fazer alarde
 
A                       E
sem bater na porta...sem mandar aviso
A                        E        (Riff5)
sem passar recibo...sem hora certa
A                        E  
vai passar batido...despercebido
F#                      A
talvez até já tenha acontecido

E (Riff2)

solo: Riff1 (4x)  D
      Riff3

refrão  Riff1 (2x) e Riff2

Riff da introdução                      e na última vez faz essa escalinha: 
e---------------------------------             ----------------------------     
B---------------------------------             ----------------------------
G---------------------------------             ----------------------------
D----------------------------6----             ----------------------------
A-------5/7--7--------------------             --7-------------------------
E-0--0-----------7p5---5h7--------             -----7---5---7--5----3------

Riff 1                                       Riff 2

e---------------------------------            --------------------------------
B---------------------------------            --------------------------------
G---------------------------------            --------------------------------
D---------------------------------            --------------------------------
A---------5/7-7----------------6--            ---------5/7--7--7--------------
E--0--0----------7p5---5h7--------            --0---0------------7--5--7---3--

Riff3                                         Riff4 (2ª vez na faz o C#*)
e---------------------------------            --------------------------------
B---------------------------------            --------------------------------
G---------------------------------            --11^13-11--9---11^13-11--9-----
D---------------------------------            -----------------------------11*
A---------5/7--7------------------            --------------------------------
E--0--0------------7/5--5--4------            --------------------------------

Riff5 (abafado)
e---------------------------------            
B---------------------------------            
G---------------------------------            
D------------------2--------------           
A-----------2--4------------------            
E--0--2--4------------------------            


Cifrado por Rafa Guess - 
(baixista da Banda Anyllia 25 de Montes Claros-MG)
qualquer dúvida, sugestões ou tablatura ou/e partitura
de qualuqer baixo dos Engenheiros do Hawaii - [email protected]







Versão 2
-======-

Intro:(E A E/G#)

(E A)
Foto de satélite...visão de raio X
Cães farejadores...detectores de metal
Currículo escolar... teste de QI
Previsões do tempo no telejornal
A                        (E A E/G#)
Não captarão, não captarão

(E A)
Capas de revista, lista de 'dez mais'
Grampo telefônico...malha fina
A lei da selva e dos tribunais
Leitura de mãos...regressão a outras vidas
A                        (E A E/G#)
Não captarão, não captarão

C#m          A      C#m         A
Sem soar o alarme...sem fazer alarde
A                 E
Vai passar batido...despercebido
F#m           A              (E A E/G#)
Talvez até já tenha acontecido

(E A)
Sondas e radares não captarão
Revisores ortográficos também não
Pesquisa de opinião, câmera escondida
Os caras ligados se atrasarão
A                                     (E A E/G#)
Não captarão...não...não...não captarão

C#m          A      C#m         A
Sem soar o alarme...sem fazer alarde
A                 E
Vai passar batido...despercebido
F#m           A              (E A E/G#)
Talvez até já tenha acontecido

(Solo)

C#m          A      C#m         A
Sem soar o alarme...sem fazer alarde
A                  E
Sem bater na porta...sem mandar aviso
A                 E
Sem passar recibo...sem hora certa
A                 E
Vai passar batido...despercebido
F#m           A              (E A E/G#)
Talvez até já tenha acontecido


E/G# = 46-34-25-14





Quer fazer uma correção nesta cifra?







    Comentários (0) Postar um Comentário

    Nenhum comentário encontrado. Seja o primeiro!