Cifra da música: Algo Por Você - Engenheiros do Hawaii

Esse cifra de Engenheiros do Hawaii já foi acessado por 1392 pessoas.

Comente

A música Algo Por Você fez muito sucesso quando foi gravada por Engenheiros do Hawaii. Quer conhecer a letra dela? Veja a letra de Algo Por Você e cante.

Veja também o vídeo da música tocada.


(Humberto Gessinger / Fernando Deluqui) 

Intr:
E--------------------------------------------------
B----------------------------------------8---------
G--------7-------7h8------------7------7-----7-----
D------7---7------------------7------5-------------
A----5-------5-----------10-8------8---------------
E--------------------------------------------------

E--------------------------------------------------
B--------------------------------------------------
G--------7----------------------7------------------
D------7---7-----7h8----------7--------------------
A----5-------5-----------10-8------8-7b8-----------
E----------------------------------------8---------

Esse começo acho q tem até o fim da música..mas escutem q é melhor..
o solo ta certo.mas não sei quantas vezes faz......




Introdução: 2x (D F G)

D                 F         G          D           F  G
Hey, garota, não fique esperando o telefone tocar
           D                   F       G     
Os homens são o que são e são todos iguais
    D                     F         G   D F G
O difícil é saber quem é clone de quem
D                 F         G          D           F  G
Hey, garota, não fique esperando o telefone tocar
   D                   F       G          
De volta ao passado, tecendo tapetes,
     D                    F   G
Esperando o guerreiro voltar

         Bb              C                   
Já lhe fizeram sofrer demais
G        Bb             C
Já lhe fizeram feliz demais
G      Bb        C
Tá na hora de você mesma fazer
           G    Bb
Algo por você
    A
Só você pode fazer

D                   F     G        D               F   G
Hey, garota, o dia já passou, não deixe a noite passar
            D                   F     G
Passe um baton, ou não, e vá se divertir
      D                    F       G     D F G
Você vai descobrir quem é clone de quem
D             F         G        D
Hey, garota, faça o favor: não fique esperando
F          G     D
Faça algo por você
D             F         G        D
Hey, garota, faça o favor: não fique esperando
F          G     D
Faça algo por você
F       G        D
E só você pode fazer


Quer fazer uma correção nesta cifra?







    Comentários (0) Postar um Comentário

    Nenhum comentário encontrado. Seja o primeiro!