Cifra da música: We Never Change - Coldplay

Esse cifra de Coldplay já foi acessado por 1003 pessoas.

Comente

A música We Never Change fez muito sucesso quando foi gravada por Coldplay. Quer conhecer a letra dela? Veja a letra de We Never Change e cante.

Veja também o vídeo da música tocada.


E maior 3 semitons abaixo. 
Novamente o polegar é usado. 

 
 Afinação - 
 
 Guitarra 1: E A D G B C# ((Afinação alta e cordas baixam 1 e ½ degrau para C#) 

 Guitarra 2: E A D G B E
  
 Intro:
 
 Guitarra 1

 |--0-----0--|
 |--0-----0--|
 |--2-----1--|
 |--4-----2--| x2
 |--4-----2--|
 |--2-----0--|

 Verso:

 Guitarra 1

 |--0-----0--|
 |--0-----0--|
 |--2-----1--|
 |--4-----2--| x2
 |--4-----2--|
 |--2-----0--|

 |--0--0-----0--|
 |--0--0-----0--|
 |--4--2-----1--|
 |--4--4-----2--| x2
 |--2--4-----2--|
 |-----2-----0--|

 Chorus:

 Guitarra 1

 |--0-----0---|
 |--0-----0---|
 |--6-----6---|
 |--7-----6---|
 |--7-----4---|
 |--5---------|

 Guitarra 2

 |--17-----------------16~~--12----11----|
 |------------------------------10---10--|
 |-----9-11-11b13r11---------------------|
 |---------------------------------------| x2
 |---------------------------------------|
 |---------------------------------------|

Repete Verso e Refrão

Então repete Verso de novo.

Bridge:

Guitarra 1


 |--0----0--|
 |--0----0--|
 |--4----1--|
 |--4----2--| x2
 |--2----2--|
 |-------0--|

 Repete Verso:

Outro:

Guitarra 1


 |--0--0--0--0-----0--0---0--0--|--0--0--0---0--|
 |--0--0--0--0-----0--0---0--0--|--0--0--0---0--|
 |--7--2--1--7-----2--1--11--7--|--2--1--7---2--|
 |--9--4--2--9-----4--2--12--9--|--4--2--9---4--|
 |--9--4--2--9-----4--2--12--9--|--4--2--9---4--|
 |--7--2--0--7-----2--0--10--7--|--2--0--7---2--|


Quer fazer uma correção nesta cifra?







    Comentários (0) Postar um Comentário

    Nenhum comentário encontrado. Seja o primeiro!