Cifra da música: High Speed - Coldplay

Esse cifra de Coldplay já foi acessado por 1012 pessoas.

Comente

A música High Speed fez muito sucesso quando foi gravada por Coldplay. Quer conhecer a letra dela? Veja a letra de High Speed e cante.

Veja também o vídeo da música tocada.


 Afinação:

 Guitarra 1 - D G D G B Eb

 Guitarra 2 - E A D G B E

 INTRO:

 Guitarra 1
 
 |--4----4----|
 |--3----3----|
 |--0----0----|
 |--0----0----| x4
 |--3----5----|
 |------------|

 Guitarra 2

 |------6-6-5-5-3-3------8-8-6-6-5-5--|    |------6-6-5-5-3-3---8~~---|
 |------------------------------------|    |--------------------5~~---|
 |--3-3--------------5-5--------------|    |--3-3---------------5~~---|
 |------------------------------------| x3 |--------------------------|
 |------------------------------------|    |--------------------------|
 |------------------------------------|    |--------------------------|

Então.....

 Guitarra 1

 |--4-----|
 |--3-----|
 |--0-----|
 |--0-----| x2
 |--0-----|
 |--------|

 Guitarra 2

 |----------------------------------------------|
 |----3---31---1p0-----------------------------|
 |--4---4-----2-----2-0--------------0h2p0---0--|
 |-----------------------------0-0h2-------2----| x2
 |-------------------------0h2------------------|
 |----------------------3-----------------------|

 VERSO:

 Guitarra 1

 |--4-------4--|
 |--3-------3--|
 |--0-------0--|
 |--0-------0--| x4
 |--3-------0--|
 |-------------|

 Guitarra 2:
A guitarra-solo toca uma série de diferentes riffs durante o primeiro acorde, por exemplo 


 |---------------------|
 |--3-4-3-4-3-4-3-4-3--|
 |---------------------|
 |---------------------|
 |---------------------|
 |---------------------|

 Isto é sempre tocado durante o segundo acorde no verso.

 |----------------------------------------------|
 |----3---31---1p0-----------------------------|
 |--4---4-----2-----2-0--------------0h2p0---0--|
 |-----------------------------0-0h2-------2----| 
 |-------------------------0h2------------------|
 |----------------------3-----------------------|

 Antes do refrão muda para.....

 |-----------------------------7---7-------|
 |----3---31---1p0-------5//8---8---8---|
 |--4---4-----2-----2-0--------------------|
 |-----------------------------------------|
 |-----------------------------------------|
 |----------------------3------------------|

 Refrão:

 Guitarra 1

 |--4-------4--|    |--4-----|
 |--3-------3--|    |--3-----|
 |--0-------0--|    |--0-----|
 |--0-------0--| x2 |--0-----|
 |--3-------0--|    |--0-----|
 |-------------|    |--------|

 Guitarra 2

 |------------------------------|    |---------|
 |----3-------3------5-----5----|    |--3~~~~--|
 |------0-------0------0~~---0--|    |--0~~~~--|
 |--3------3------/5------------| x2 |--0~~~~--|
 |------------------------------|    |---------|
 |------------------------------|    |---------|

 The outro é um G contínuo 

 |--4--|
 |--3--|
 |--0--|
 |--0--|
 |--0--|
 |-----|


Quer fazer uma correção nesta cifra?







    Comentários (0) Postar um Comentário

    Nenhum comentário encontrado. Seja o primeiro!